Song name
# A B C D E F G H I J K L M N O P Q R S T U V W X Y Z

Hawk Eyes - Dead Mans Hand tab

HAWK EYES - DEAD MAN'S HAND [TAKEN FROM THE MINDHAMMERS EP]
http://www.hawkeyesmusic.com/

Drop C Tuning - CGCFAD

I did alot of this from memory so it may not be 100% accurate.
Tried to include both lead and rhythm...you can figure the rest out.

Intro - Bass and Drums

[0:24] Both Guitars

D]---------|
A]---------|
F]---------|
C]--4-5-0~-|
G]----5-0~-|
C]----5-0~-|


[0:28] Lead Guitar

D]--------------|
A]--10h11h10p0--|
F]--------------|
C]--------------|
G]--------------|
C]--------------|


[0:29] Both Guitars

D]---------------------------------------------|
A]---------------------------------------------|
F]---------------------------------------------|
C]--12p0-1212121212-12p0-121212/1313\1212\1010-|
G]--12p0-1212121212-12p0-121212/1313\1212\1010-|
C]--12p0-1212121212-12p0-121212/1313\1212\1010-|


[0:42] Both Guitars

D]----------------------|
A]----------------------|
F]----------------------|
C]--555/77/88\77\55/77--|
G]--555/77/88\77\55/77--|
C]--555/77/88\77\55/77--|


[0:45] Both Guitars

D]---------------------------------------------|
A]---------------------------------------------|
F]---------------------------------------------|
C]--12p0-1212121212-12p0-121212/1313\1212\1010-|
G]--12p0-1212121212-12p0-121212/1313\1212\1010-|
C]--12p0-1212121212-12p0-121212/1313\1212\1010-|


[1:10] Both Guitars

D]-------------------------|
A]-------------------------|
F]-------------------------|
C]--22/131313-22/15151515b-|
G]--22/131313-22/15151515b-|
C]--22/131313-22/15151515b-|


[1:14] Lead Guitar

D]----------------------------|
A]--44444444h5555/10h11h10p0--|
F]--[SLIGHT PM]---------------|
C]----------------------------|
G]----------------------------|
C]----------------------------|


[1:33]

Lead Guitar                  Rhythm Guitar


D]---------------            D]----------------|
A]--10h11h10p0---            A]----------------|
F]---------------            F]----------------|
C]---------------            C]--8~---3--5--8--|
G]---------------            G]--8~---3--5--8--|
C]---------------            C]--8~---3--5--8--|


[1:39] Lead Guitar

D]----------------------------|
A]--44444444h5555/10h11h10p0--|
F]--[SLIGHT PM]---------------|
C]----------------------------|
G]----------------------------|
C]----------------------------|


[1:52]

Lead Guitar                  Rhythm Guitar

D]---------------            D]--------------|
A]--10h11h10p0---            A]--------------|
F]---------------            F]--------------|
C]---------------            C]--8~---3--5\--|
G]---------------            G]--8~---3--5\--|
C]---------------            C]--8~---3--5\--|


[1:58] Both Guitars

D]----------------------------------------------|
A]----------------------------------------------|
F]----------------------------------------------|
C]--12p0-1212121212-12p0-121212/1313\1212\1010--|
G]--12p0-1212121212-12p0-121212/1313\1212\1010--|
C]--12p0-1212121212-12p0-121212/1313\1212\1010--|


[2:24] Both Guitars

D]----------------------|
A]----------------------|
F]----------------------|
C]--555/77/88\77\55/77--|
G]--555/77/88\77\55/77--|
C]--555/77/88\77\55/77--|


[2:27] Both Guitars

D]-------------------------|
A]-------------------------|
F]-------------------------|
C]--22/131313-22/15151515b-|
G]--22/131313-22/15151515b-|
C]--22/131313-22/15151515b-|


[2:30] Both Guitars

D]--------------------------------------------|
A]--------------------------------------------|
F]--------------------------------------------|
C]--4-5-0~----4-5-11h12-11-4-5-0~---4--5-4h5--|
G]----5-0~------5--9h10--9---5-0~------5-4h5--|
C]----5-0~------5------------5-0~------5-4h5--|


[2:43] Lead Guitar

D]----------------------------|
A]--44444444h5555/10h11h10p0--|
F]--[SLIGHT PM]---------------|
C]----------------------------|
G]----------------------------|
C]----------------------------|

[2:56]

Lead Guitar                  Rhythm Guitar

D]---------------            D]----------------|
A]--10h11h10p0---            A]----------------|
F]---------------            F]----------------|
C]---------------            C]--8~---3--5--8--|
G]---------------            G]--8~---3--5--8--|
C]---------------            C]--8~---3--5--8--|


[3:02] Lead Guitar

D]----------------------------|
A]--44444444h5555/10h11h10p0--|
F]--[SLIGHT PM]---------------|
C]----------------------------|
G]----------------------------|
C]----------------------------|


[3:15]

Lead Guitar                  Rhythm Guitar

D]---------------            D]----------------|
A]--10h11h10p0---            A]----------------|
F]---------------            F]----------------|
C]---------------            C]--8~---3--5--8--|
G]---------------            G]--8~---3--5--8--|
C]---------------            C]--8~---3--5--8--|


[3:22] Both Guitars

D]------------------------------|
A]------------------------------|
F]--7xx-77777-7xx-777/88\77\55--|
C]------------------------------|
G]--5xx-55555-5xx-555/66\55\33--|
C]------------------------------|


[4:00] Both Guitars

D]------------------------------------------|
A]------------------------------------------|
F]------------------------------------------|
C]--5-0~----4-5-11h12-11-4-5-0~---4--5-4h5--|
G]--5-0~------5--9h10--9---5-0~------5-4h5--|
C]--5-0~------5------------5-0~------5-4h5--|
Tap to rate this tab
# A B C D E F G H I J K L M N O P Q R S T U V W X Y Z