Song name
# A B C D E F G H I J K L M N O P Q R S T U V W X Y Z

Hawk Nelson - Somethin On My Mind tab

Artist: Hawk Nelson
Song: Something On My Mind
Album: Smile It's The End Of The World



p=pull off
h=hammer on
b=bend
*=1/2 bend strike again and bend 
back to the note in parentheses




e---------------------------------------------------------------|
b-----5*-(5)----------------------5-----------------------------|
g-5h7---------7-5-----5h7-5-5-5-7---7----5h7-7*-(7)-5---5-5h7p5-|
d-----------------7-----------------------------------7---------|
a---------------------------------------------------------------|
e---------------------------------------------------------------|



e---------------------------------------------------------|
b--------------------------5*-(5)---------------------5---|
g-5h7-5-5-5-7-7*-(7)---5h7--------7-5-----5h7-5-5-5-7---7-|
d-------------------------------------7-------------------|
a---------------------------------------------------------|
e---------------------------------------------------------|



e-------------------------------------------------------------------------|
b--------------7--------------7----------------------------------5--------|
g-5h7-7b-7b-7*---(7)-7b-7b-7*---(7)-5---55-55-55--------55-55-55---7-5--5-|
d---------------------------------------55-55-55-----3--55-55-55--------5-|
a---------------------------------------33-33-33-3h5----33-33-33--------3-|
e-------------------------------------------------------------------------|
Tap to rate this tab
# A B C D E F G H I J K L M N O P Q R S T U V W X Y Z