Song name
# A B C D E F G H I J K L M N O P Q R S T U V W X Y Z

Hawk Nelson - You Have What I Need tab

Intro:
E|-------------------------------------------|
B|-------------------------------------------|
G|-------------------------------------------|
D|------000-----------------000--------------|
A|---------000-2-0-2-----------000-2-2-------|
E|-2-0-2---------------2-0-2-----------------|x4

then the rythem guitar does power chords while the lead continues the intro.

Rythem:
E|-------------------------------------------|
B|-------------------------------------------|
G|-------7-7---------------------------------|
D|-4-4-4-7-7-7-7-7-9-9-----------------------|
A|-4-4-4-5-5-7-7-7-9-9-----------------------|
E|-2-2-2-----5-5-5-7-7-----------------------|

Verse:
Guitar does some picking in background and i can't pick it out by ear:-(

Chorus:this part is played fast and takes awhile to get used to:
E|---------------------------------------------------------------------------------------|
B|---------------------------------------------------------------------------------------|
G|-10101010-11------------------11------------------11-----------------------------------|
D|-10101010-9--11-9-7--7-9-7-4--9--11-9-7--7-9-6-7--9--11-9-7-9-6-7--7-9-7-4--4444-7777--|
A|-8-8-8-8--9--11-9-7--7-9-7-4--9--9--9-7--7-9-6-7--9--9--9-7-9-6-7--7-9-7-4--4444-7777--|
E|-------------9--7-5--5-7-5-2-----9--7-5--5-7-4-5-----9--7-5-7-4-5--5-7-5-2--2222-5555--|

then intro again

then verse

and then 2nd chorus is played the same with intro part after the chorus

then the bridge which is all palm mute:
E|---------------------------|
B|---------------------------|
G|---------------------------|
D|-444-777-999-111111--------|
A|-444-777-999-111111--------|
E|-222-555-777-9-9-9---------|

and then end with another chorus

Enjoy:-) and comment if any mistakes please
Tap to rate this tab
# A B C D E F G H I J K L M N O P Q R S T U V W X Y Z