Song name
# A B C D E F G H I J K L M N O P Q R S T U V W X Y Z

Hawk Nelson - Sheridan tab

This is only the Vers and the Pre-Chorus


 /  PM  \      /  PM  \      /  PM  \      /  PM  \
e----------------------------------------------------------|
B----------------------------------------------------------|
G---------7-6-7---------7-6-7---------7-6-7---------7-6-7--|    x2
D-----------------------------5-5-5-5-------5-5-5-5--------|
A-5-5-5-5-------5-5-5-5------------------------------------|
E----------------------------------------------------------|


  D       A       B       G
e-----------------------------------------------------------|
B-----------------------------------------------------------|
G-7---------------5-----------------------------------------|
D-7-------7-------5-------5---------------------------------|
A-5-------7-------2-------5---------------------------------|
E---------5---------------3---------------------------------|
Tap to rate this tab
 
# A B C D E F G H I J K L M N O P Q R S T U V W X Y Z