Song name
# A B C D E F G H I J K L M N O P Q R S T U V W X Y Z

Hawk Nelson - Zero tab

Zero
Hawk Nelson (lyrics by Jason Dunn)
Standard
C Major


Verse
Piano Chords:
     C          G          F          G
|----------|----------|----------|----------|
|----------|----------|----------|----------|
|-5--5--5--|-5--5--5--|-5--5--5--|-5--5--5--|
|-5--5--5--|-5--5--5--|-5--5--5--|-5--5--5--|
|-3--3--3--|-3--3--3--|-3--3--3--|-3--3--3--|
|----------|----------|----------|----------|

play that 4 times until the pre-chorus:

Pre-Chorus:
|-------------------------------------|
|-------------------------------------|
|-------------------------------------|
|-7-7-7-7--7-7-7-7--7-7-7-7--7-7-7-7--|
|-7-7-7-7--7-7-7-7--7-7-7-7--7-7-7-7--|
|-5-5-5-5--5-5-5-5--5-5-5-5--5-5-5-5--|
 \___________________PM______________/


|-------------------------------------|
|-------------------------------------|
|-------------------------------------|
|-5-5-5-5--5-5-5-5--5-5-5-5--5-5-5-5--|
|-5-5-5-5--5-5-5-5--5-5-5-5--5-5-5-5--|
|-3-3-3-3--3-3-3-3--3-3-3-3--3-3-3-3--|
 \___________________PM______________/


|-------------------------------------|
|-------------------------------------|
|-5-5-5-5--5-5-5-5--5-5-5-5--5-5-5-5--|
|-5-5-5-5--5-5-5-5--5-5-5-5--5-5-5-5--|
|-3-3-3-3--3-3-3-3--3-3-3-3--3-3-3-3--|
|-------------------------------------|
 \___________________PM______________/


|-------------------------------------|
|-------------------------------------|
|-3-3-3-3--3-3-3-3--3-3-3-3--3-3-3-3--|
|-3-3-3-3--3-3-3-3--3-3-3-3--3-3-3-3--|
|-1-1-1-1--1-1-1-1--1-1-1-1--1-1-1-1--|
|-------------------------------------|
 \_________PM____________/
 


Chorus:
|-----|-----|-----|-----|
|-----|-----|-----|-----|
|--5--|-----|-----|-----|
|--5--|--5--|--3--|--5--|
|--3--|--5--|--3--|--5--|
|-----|--3--|--1--|--3--|

|-----|-----|-----|-----|
|-----|-----|-----|-----|
|--5--|-----|-----|-----|
|--5--|--5--|--3--|--5--|
|--3--|--5--|--3--|--5--|
|-----|--3--|--1--|--3--|


Piano Interlude-4 measures

Verse
Piano Chords:
     C          G          F          G
|----------|----------|----------|----------|
|----------|----------|----------|----------|
|-5--5--5--|-5--5--5--|-5--5--5--|-5--5--5--|
|-5--5--5--|-5--5--5--|-5--5--5--|-5--5--5--|
|-3--3--3--|-3--3--3--|-3--3--3--|-3--3--3--|
|----------|----------|----------|----------|
^Play 2x until Pre-Chorus

Pre-Chorus:
|-------------------------------------|
|-------------------------------------|
|-------------------------------------|
|-7-7-7-7--7-7-7-7--7-7-7-7--7-7-7-7--|
|-7-7-7-7--7-7-7-7--7-7-7-7--7-7-7-7--|
|-5-5-5-5--5-5-5-5--5-5-5-5--5-5-5-5--|
 \___________________PM______________/

 
|-------------------------------------|
|-------------------------------------|
|-------------------------------------|
|-5-5-5-5--5-5-5-5--5-5-5-5--5-5-5-5--|
|-5-5-5-5--5-5-5-5--5-5-5-5--5-5-5-5--|
|-3-3-3-3--3-3-3-3--3-3-3-3--3-3-3-3--|
 \___________________PM______________/


|-------------------------------------|
|-------------------------------------|
|-5-5-5-5--5-5-5-5--5-5-5-5--5-5-5-5--|
|-5-5-5-5--5-5-5-5--5-5-5-5--5-5-5-5--|
|-3-3-3-3--3-3-3-3--3-3-3-3--3-3-3-3--|
|-------------------------------------|
 \___________________PM______________/


|-------------------------------------|
|-------------------------------------|
|-3-3-3-3--3-3-3-3--3-3-3-3--3-3-3-3--|
|-3-3-3-3--3-3-3-3--3-3-3-3--3-3-3-3--|
|-1-1-1-1--1-1-1-1--1-1-1-1--1-1-1-1--|
|-------------------------------------|
 \_________PM____________/


Chorus:
|-----|-----|-----|-----|
|-----|-----|-----|-----|
|--5--|-----|-----|-----|
|--5--|--5--|--3--|--5--|
|--3--|--5--|--3--|--5--|
|-----|--3--|--1--|--3--|

|-----|-----|-----|-----|
|-----|-----|-----|-----|
|--5--|-----|-----|-----|
|--5--|--5--|--3--|--5--|
|--3--|--5--|--3--|--5--|
|-----|--3--|--1--|--3--|


Interlude..its a little weird separate but all together it sounds fine..
bottom set in each bracket is for bass-
   __________
  /
 /  |-------------3-3-3---------------|
 |  |-----------------------------3-5-|
 |  |-------5-5---------5---5-5-------|
 |  |---------------------------------|
 |  |---------------------------------|
 |  |---------------------------------|
 |   -1-e-&-a-2-e-&-a-3-e-&-a-4-e-&-a-
<
 |  |---------------------------------|
 |  |---------------------------------|
 |  |---------------------------------|
 |  |-1-1-1-1-1-1-1-1-1-1-1-1-1-1-1-1-|
 \   -1-e-&-a-2-e-&-a-3-e-&-a-4-e-&-a-
  \__________

   __________
  /
 /  |-------------3-3-3---------------|
 |  |-------3---3-------3---3-3---3-5-|
 |  |---------------------------------|
 |  |---------------------------------| 
 |  |---------------------------------|
 |  |---------------------------------|
 |   -1-e-&-a-2-e-&-a-3-e-&-a-4-e-&-a-
<
 |  |---------------------------------|
 |  |---------------------------------|
 |  |---------------------------------|
 |  |-3-3-3-3-3-3-3-3-3-3-3-3-3-3-3-3-|
 \   -1-e-&-a-2-e-&-a-3-e-&-a-4-e-&-a-
  \__________

   __________
  /
 /  |-------------3-3-3---------------|
 |  |-----------------------------3-5-|
 |  |-------5-5---------5---5-5-------|
 |  |---------------------------------|
 |  |---------------------------------|
 |  |---------------------------------|
 |   -1-e-&-a-2-e-&-a-3-e-&-a-4-e-&-a-
<
 |  |---------------------------------|
 |  |---------------------------------|
 |  |---------------------------------|
 |  |-1-1-1-1-1-1-1-1-1-1-1-1-1-1-1-1-|
 \   -1-e-&-a-2-e-&-a-3-e-&-a-4-e-&-a-
  \__________

   __________
  /
 /  |-------------3-3-3---------------|
 |  |-------3---3-------3---3-3---3-5-|
 |  |---------------------------------|
 |  |---------------------------------| 
 |  |---------------------------------|
 |  |---------------------------------|
 |   -1-e-&-a-2-e-&-a-3-e-&-a-4-e-&-a-
<
 |  |---------------------------------|
 |  |---------------------------------|
 |  |---------------------------------|
 |  |-3-3-3-3-3-3-3-3-3-3-3-3-3-3-3-3-|
 \   -1-e-&-a-2-e-&-a-3-e-&-a-4-e-&-a-
  \__________

   __________
  /
 /  |-------------3-3-3---------------|
 |  |-----------------------------3-5-|
 |  |-------5-5---------5---5-5-------|
 |  |---------------------------------|
 |  |---------------------------------|
 |  |---------------------------------|
 |   -1-e-&-a-2-e-&-a-3-e-&-a-4-e-&-a-
<
 |  |---------------------------------|
 |  |---------------------------------|
 |  |-3-3-3-3-3-3-3-3-3-3-3-3-3-3-3-3-|
 |  |---------------------------------|
 \   -1-e-&-a-2-e-&-a-3-e-&-a-4-e-&-a-
  \__________

   __________
  /
 /  |-------------3-3-3---------------|
 |  |-------3---3-------3---3-3---3-5-|
 |  |---------------------------------|
 |  |---------------------------------| 
 |  |---------------------------------|
 |  |---------------------------------|
 |   -1-e-&-a-2-e-&-a-3-e-&-a-4-e-&-a-
<
 |  |---------------------------------|
 |  |---------------------------------|
 |  |-2-2-2-2-2-2-2-2-2-2-2-2-2-2-2-2-|
 |  |---------------------------------|
 \   -1-e-&-a-2-e-&-a-3-e-&-a-4-e-&-a-
  \__________

   __________
  /
 /  |-------------3-3-------------3-3-|
 |  |---------------------------------|
 |  |-------5-5-------------5-5-------|
 |  |---------------------------------|
 |  |---------------------------------|
 |  |---------------------------------|
 |   -1-e-&-a-2-e-&-a-3-e-&-a-4-e-&-a-
<
 |  |---------------------------------|
 |  |---------------------------------|
 |  |-0-0-0-0-0-0-0-0-----------------|
 |  |-----------------4-4-4-4-4-4-4-4-|
 \   -1-e-&-a-2-e-&-a-3-e-&-a-4-e-&-a-
  \__________


   __________
  /
 /  |---------------------------------|
 |  |-------------5-5-5-------5-6-5---|
 |  |-------5-5---------5-5-5---------|
 |  |---------------------------------|
 |  |---------------------------------|
 |  |---------------------------------|
 |   -1-e-&-a-2-e-&-a-3-e-&-a-4-e-&-a-
<
 |  |---------------------------------|
 |  |---------------------------------|
 |  |---------------------------------|
 |  |-1-1-1-1-1-1-1-1-1-1-1-1-1-1-1-1-|
 \   -1-e-&-a-2-e-&-a-3-e-&-a-4-e-&-a-
  \__________

   __________
  /
 /  |-------------3-3-3---------------|
 |  |-----------------------------3-5-|
 |  |-------5-5---------5---5-5-------|
 |  |---------------------------------|
 |  |---------------------------------|
 |  |---------------------------------|
 |   -1-e-&-a-2-e-&-a-3-e-&-a-4-e-&-a-
<
 |  |---------------------------------|
 |  |---------------------------------|
 |  |-3-3-3-3-3-3-3-3-3-3-3-3-3-3-3-3-|
 |  |---------------------------------|  
 \   -1-e-&-a-2-e-&-a-3-e-&-a-4-e-&-a-
  \__________

   __________
  /
 /  |-------------3-3-3---------------|
 |  |-------3---3-------3---3-3---3-5-|
 |  |---------------------------------|
 |  |---------------------------------| 
 |  |---------------------------------|
 |  |---------------------------------|
 |   -1-e-&-a-2-e-&-a-3-e-&-a-4-e-&-a-
<
 |  |---------------------------------|
 |  |---------------------------------|
 |  |-2-2-2-2-2-2-2-2-2-2-2-2-2-2-2-2-|
 |  |---------------------------------|
 \   -1-e-&-a-2-e-&-a-3-e-&-a-4-e-&-a-
  \__________

   __________
  /
 /  |-------------3-3-------------3-3-|
 |  |---------------------------------|
 |  |-------5-5-------------5-5-------|
 |  |---------------------------------|
 |  |---------------------------------|
 |  |---------------------------------|
 |   -1-e-&-a-2-e-&-a-3-e-&-a-4-e-&-a-
<
 |  |---------------------------------|
 |  |---------------------------------|
 |  |-0-0-0-0-0-0-0-0-----------------|
 |  |-----------------4-4-4-4-4-4-4-4-|
 \   -1-e-&-a-2-e-&-a-3-e-&-a-4-e-&-a-
  \__________


WHAT WAS HE THINKING?!


Chorus:
|-----|-----|-----|-----|
|-----|-----|-----|-----|
|--5--|-----|-----|-----|
|--5--|--5--|--3--|--5--|
|--3--|--5--|--3--|--5--|
|-----|--3--|--1--|--3--|

|-----|-----|-----|-----|
|-----|-----|-----|-----|
|--5--|-----|-----|-----|
|--5--|--5--|--3--|--5--|
|--3--|--5--|--3--|--5--|
|-----|--3--|--1--|--3--|


Guitar Solo:
Rhythm Chords:
        C               G               F                   G
|--------------|-----------------|--------------|-----------------------|
|--------------|-----------------|--------------|-----------------------|
|--5------5-7--|-(7)-----5--7h9--|--5------5-7--|--4-5-4----------------|
|-----5-7------|-----5-7---------|-----5-7------|--------5-7-5----------|
|--------------|-----------------|--------------|---------------5-7-5---|
|--------------|-----------------|--------------|-----------------------|

        C                G               F                  G      
|--------------|-----------------|--------------|------------------------|
|--------------|-----------------|--------------|------------------8-----|
|--5------5-7--|-(7)-----5--7h9--|--5------5-7--|--4-5-4-------7-9----7--|
|-----5-7------|-----5-7---------|-----5-7------|--------5-7-5-----------|
|--------------|-----------------|--------------|------------------------|
|--------------|-----------------|--------------|------------------------|

   C
|-----|
|-----|
|--5--|
|-----|
|-----|
|-----|

Piano Outro until last measure with a heavily distorted

|-----|
|-----|
|--5--|
|--5--|
|--3--|
|-----|
Tap to rate this tab
# A B C D E F G H I J K L M N O P Q R S T U V W X Y Z