Song name
# A B C D E F G H I J K L M N O P Q R S T U V W X Y Z

Hawk Nelson - Bring Em Out tab

Song: Bring 'Em Out
Artist: Hawk Nelson
Album: Smile, It's The End Of The World

Solo:
e|-----------------------------------------------------------------|
B|-----------------------------------------------------------------|
G|--11---11---11---11---8h9p8--------11---11---11---11---15-16-18--|
D|-----9----9----9----9-------11---9----9----9----9----9-----------|
A|-----------------------------------------------------------------|
E|-----------------------------------------------------------------|

e|------------------------------------------------------------------|
B|-----12----12----12----12----16b-14--14b-14b-14b-12-11-12-14-12~--|
G|--11----11----11----11----11--------------------------------------|
D|------------------------------------------------------------------|
A|------------------------------------------------------------------|
E|------------------------------------------------------------------|


I noticed that most of the solo tabs for this song
were wrong so I thought I'd give it a shot and to me
this sounds 100% perfect. Feel free to comment and please rate.
Tap to rate this tab
# A B C D E F G H I J K L M N O P Q R S T U V W X Y Z