Song name
# A B C D E F G H I J K L M N O P Q R S T U V W X Y Z

Hawk Nelson - Show tab

OK, this is the first song I've posted on my new acount but the third I've
posted on UG.  I've also done 'California' beginners version and 'Bring 'Em Out'.
I hope you like it!!!


x=palm mute

(Bass intro then)

Intro:

E---------------------------------------------------------------------------|
B---------------------------------------------------------------------------|
G---------------------------------------------------------------------------|
D---x-14-12-12-11----------------------------------x-x-x-x-x-x-x-x-14-12-12-|
A---x-------------14-12-12-14-11-11-12-12-12-11-11-x-x-x-x-x-x-x-x----------|
E---------------------------------------------------------------------------|

E-------------------------------------------|
B-------------------------------------------|
G-------------------------------------------|
D---11--------------------------------------|
A------14-12-12-14-11-11-12-12-12-11-11-----|
E-------------------------------------------|

Verse 1:

E--------------------------|x4
B--------------------------|
G--------------------------|
C---2-x-6-7-x-4-4-4-2------|
A---2-x-6-7-x-4-4-4-2------|
C---2-x-6-7-x-4-4-4-2------|

Chorus:

E--------------------------------|x4
B--------------------------------|
G--------------------------------|
D---2-2-2-6-7-x-x-4-x-x-2-x------|
A---2-2-2-6-7-x-x-4-x-x-2-x------|
E---2-2-2-6-7-x-x-4-x-x-2-x------|

Pre-Verse:

E----------------------------------------------------|
B----------------------------------------------------|
G----------------------------------------------------|
D---14-12-12-13-14-----------------------------------|
A------------------12-12-14-11-11-12-12-12-11-11-----|
E----------------------------------------------------|

Verse 2:

E--------------------------|x4
B--------------------------|
G--------------------------|
D---2-x-6-7-x-4-4-4-2------|
A---2-x-6-7-x-4-4-4-2------|
E---2-x-6-7-x-4-4-4-2------|

-
Bridge:

E---------------------|x2
B-------7---7---------|
G---7---7---7---7-----|
D---7-----------7-----|
A---------------------|
E---------------------|

Then you do it a bit faster like this

E-----------------------------------------|x2
B-----------7777777777777777--------------|
G---77777777777777777777777777777777------|
D---77777777----------------77777777------|
A-----------------------------------------|
E-----------------------------------------|

Then you do the chorus two more times.
Then the outro is...

Outro:
E---------------------------------------------|x2
B---------------------------------------------|
G---------------------------------------------|
D---2-2-4~-0-x-2-2-4~-0-x-2-2-4~-0-0-1-2------|
A---2-2-4~-0-x-2-2-4~-0-x-2-2-4~-0-0-1-2------|
E---2-2-4~-0-x-2-2-4~-0-x-2-2-4~-0-0-1-2------|

Then you just clap the rest of the song.
Tap to rate this tab
# A B C D E F G H I J K L M N O P Q R S T U V W X Y Z