Song name
# A B C D E F G H I J K L M N O P Q R S T U V W X Y Z

Hawk Nelson - Shaken tab

This is the little riff a between verses. Just repeat this as needed:

e|--------------------------------------------|
B|--------------------------------------------|
G|--------------------------------------------|
D|--9-10-10--10-10-10--10-10-10-10-10-10-9----|
A|-9---------------------------------------9--|
E|--------------------------------------------|

e|-------------------------------------|
B|-------------------------------------|
G|-------------------------------------|
D|-10--10-10-10--10-10-10-10-10-10-9---|
A|-----------------------------------9-|
E|-------------------------------------|

If you listen to the song there should be no problem figuring this out.
Tap to rate this tab
 
# A B C D E F G H I J K L M N O P Q R S T U V W X Y Z