Song name
# A B C D E F G H I J K L M N O P Q R S T U V W X Y Z

Hawk Nelson - Shaken tab

I totally messed up the last one I did so here's the ACTUAL tab:

e|--------------------------------------------|
B|--------------------------------------------|
G|--------------------------------------------|
D|--9-11-11--11-11-11--11-11-11-11-11-11-9----|
A|-9---------------------------------------9--|
E|--------------------------------------------|

e|-------------------------------------|
B|-------------------------------------|
G|-------------------------------------|
D|-11--11-11-11--11-11-11-11-11-11-9---|
A|-----------------------------------9-|
E|-------------------------------------|
Tap to rate this tab
 
# A B C D E F G H I J K L M N O P Q R S T U V W X Y Z