Song name
# A B C D E F G H I J K L M N O P Q R S T U V W X Y Z

Hawk Nelson - Rock N Roll The Show tab

----------------------------------------------------------------------------
			     Rock n' Roll / The Show                       
-----------------------------------------------------------------------------
Tabbed by:Lucideous Carmichael

Tuning: Standard 

Key: A

"Rock n' Roll" KISS

Intro
Guitar 1 & 2
e|-------------------------------------------------------------------------|
B|------7h8-----7h8-----7-----8-----8p7------------------------------------|
G|------7-------7-------7-----7-----7--------------------------------------|
D|------7h9-----7h9-----7-----9-----9p7------------------------------------|
A|-------------------------------------------------------------------------|
E|-------------------------------------------------------------------------|

Guitar 1
e|-----------------------------------------------------------------------|x3
B|------2------2--2--2--2--2--2-------9------9--9--9--9--9--9--------------|
G|------2------2--2--2--2--2--2-------9------9--9--9--9--9--9--------------|
D|------2------2--2--2--2--2--2-------9------9--9--9--9--9--9--------------|
A|------0------0--0--0--0--0--0-------7------7--7--7--7--7--7--------------|
E|-------------------------------------------------------------------------|

Guitar 2
e|-----------------------------------------------------------------------|x3
B|------14-----14-14-14-14-14-14------9------9--9--9--9--9--9--------------|
G|------14-----14-14-14-14-14-14------9------9--9--9--9--9--9--------------|
D|------14-----14-14-14-14-14-14------9------9--9--9--9--9--9--------------|
A|------12-----12-12-12-12-12-12------7------7--7--7--7--7--7--------------|
E|-------------------------------------------------------------------------|

Guitar 1
e|-------------------------------------------------------------------------|
B|-----7--7--8--7--7--7--8--7-----9--9--10--9--9--9--10--9-----------------|
G|-----7--7--7--7--7--7--7--7-----9--9--9---9--9--9--9---9-----------------|
D|-----7--7--9--7--7--7--9--7-----9--9--11--9--9--9--11--9-----------------|
A|-------------------------------------------------------------------------|
E|-------------------------------------------------------------------------|

Guitar 2
e|-------------------------------------------------------------------------|
B|-----7--------------------------9----------------------------------------|
G|-----7--------------------------9----------------------------------------|
D|-----7--------------------------9----------------------------------------|
A|-----5--------------------------7----------------------------------------|
E|-------------------------------------------------------------------------|

Guitar 1 & 2
e|-------------------------------------------------------------------------|
B|------7h8-----7h8-----7-----8-----8p7------------------------------------|
G|------7-------7-------7-----7-----7--------------------------------------|
D|------7h9-----7h9-----7-----9-----9p7------------------------------------|
A|-------------------------------------------------------------------------|
E|-------------------------------------------------------------------------|
e|-------------------------------------------------------------------------|

Guitar 1
e|-----------------------------------------------------------------------|x3
B|------2------2--2--2--2--2--2-------9------9--9--9--9--9--9--------------|
G|------2------2--2--2--2--2--2-------9------9--9--9--9--9--9--------------|
D|------2------2--2--2--2--2--2-------9------9--9--9--9--9--9--------------|
A|------0------0--0--0--0--0--0-------7------7--7--7--7--7--7--------------|
E|-------------------------------------------------------------------------|

Guitar 2
e|-----------------------------------------------------------------------|x3
B|------14-----14-14-14-14-14-14------9------9--9--9--9--9--9--------------|
G|------14-----14-14-14-14-14-14------9------9--9--9--9--9--9--------------|
D|------14-----14-14-14-14-14-14------9------9--9--9--9--9--9--------------|
A|------12-----12-12-12-12-12-12------7------7--7--7--7--7--7--------------|
E|-------------------------------------------------------------------------|

Guitar 1
e|-------------------------------------------------------------------------|
B|-----7--7--8--7--7--7--8--7-----9--9--10--9--9--9--10--9-----------------|
G|-----7--7--7--7--7--7--7--7-----9--9--9---9--9--9--9---9-----------------|
D|-----7--7--9--7--7--7--9--7-----9--9--11--9--9--9--11--9-----------------|
A|-------------------------------------------------------------------------|
E|-------------------------------------------------------------------------|

Guitar 2
e|-------------------------------------------------------------------------|
B|-----7--------------------------9----------------------------------------|
G|-----7--------------------------9----------------------------------------|
D|-----7--------------------------9----------------------------------------|
A|-----5--------------------------7----------------------------------------|
E|-------------------------------------------------------------------------|

Guitar 1 & 2
e|-------------------------------------------------------------------------|
B|------7h8-----7h8-----7-----8-----8p7------------------------------------|
G|------7-------7-------7-----7-----7--------------------------------------|
D|------7h9-----7h9-----7-----9-----9p7------------------------------------|
A|-------------------------------------------------------------------------|
E|-------------------------------------------------------------------------|

Pre Chorus
Guitar 1
e|-------------------------------------------------------------------------|
B|-------------------------------------------------------------------------|
G|-------------------------------------------------------------------------|
D|-----10-10-12-10-10-10-12-10-----12-12-14-12-12-12-14-12---12\-----------|
A|-----8--8--8--8--8--8--8--8------10-10-10-10-10-10-10-10---10\-----------|
E|-------------------------------------------------------------------------|

Guitar 2
e|-------------------------------------------------------------------------|
B|-------------------------------------------------------------------------|
G|-------------------------------------------------------------------------|
D|-----3--3--3--3--3--3--3--3------5--5--5--5--5--5--5--5------------------|
A|-----3--3--3--3--3--3--3--3------5--5--5--5--5--5--5--5------------------|
E|-----1--1--1--1--1--1--1--1------3--3--3--3--3--3--3--3------------------|

Chorus
Guitar 1
e|-------------------------------------------------------------------------|
B|-----2-------------------------------------------------------------------|
G|-----2-------------------------------------------------------------------|
D|-----2----------7--7--9--7--7--9--9--9--11-9--9--11----------------------|
A|-----0----------5--5--5--5--5--5--7--7--7--7--7--7-----------------------|
E|-------------------------------------------------------------------------|

Transition into "The Show" Hawk Nelson

Intro
e|-----------------------------------------------------------------------|x2
B|-----2---------10-8-8-7--------------------------------------------------|
G|-----2------------------9-7-7-9-6-6-7-7-7-6-6----------------------------|
D|-----2-------------------------------------------------------------------|
A|-----0-------------------------------------------------------------------|
E|-------------------------------------------------------------------------|

Verse 1
e|-----------------------------------------------------------------------|x2
B|-------------------------------------------------------------------------|
G|--------6/7--------4-4--2-------6/7--------------------------------------|
D|-----7--6/7--5--5--4-4--2----7--6/7--5--5--7-7---------------------------|
A|-----7--4/5--5--5--2-2--0----7--4/5--5--5--7-7---------------------------|
E|-----5-------3--3------------5-------3--3--5-5---------------------------|

Chorus
e|-----------------------------------------------------------------------|x2
B|-------------------------------------------------------------------------|
G|------------6/7--------4-4--2----------6/7-------------------------------|
D|-----7-7-7--6/7--5--5--4-4--2----7-7-7-6/7--5--5--7-7--------------------|
A|-----7-7-7--4/5--5--5--2-2--0----7-7-7-4/5--5--5--7-7--------------------|
E|-----5-5-5-------3--3------------5-5-5------3--3--5-5--------------------|

Intro
e|-------------------------------------------------------------------------|
B|-----2---------10-8-8-7--------------------------------------------------|
G|-----2------------------9-7-7-9-6-6-7-7-7-6-6----------------------------|
D|-----2-------------------------------------------------------------------|
A|-----0-------------------------------------------------------------------|
E|-------------------------------------------------------------------------|

Verse 2
e|-----------------------------------------------------------------------|x2
B|-------------------------------------------------------------------------|
G|--------6/7--------4-4--2-------6/7--------------------------------------|
D|-----7--6/7--5--5--4-4--2----7--6/7--5--5--7-7---------------------------|
A|-----7--4/5--5--5--2-2--0----7--4/5--5--5--7-7---------------------------|
E|-----5-------3--3------------5-------3--3--5-5---------------------------|

Chorus
e|-----------------------------------------------------------------------|x2
B|----------------------------------------------------------2--------------|
G|------------6/7--------4-4--2----------6/7----------------2--------------|
D|-----7-7-7--6/7--5--5--4-4--2----7-7-7-6/7--5--5--7-7-----2--------------|
A|-----7-7-7--4/5--5--5--2-2--0----7-7-7-4/5--5--5--7-7-----0--------------|
E|-----5-5-5-------3--3------------5-5-5------3--3--5-5--------------------|

Bridge
"Come on if your feeling, if your feeling alright" x4
e|-----5----5----5----5--------------------------------------------------|x2
B|-----5----7----7----5----------------------------------------------------|
G|-----6----7----7----6----------------------------------------------------|
D|-----7----7----7----7----------------------------------------------------|
A|-----7----5----5----7----------------------------------------------------|
E|-----5--------------5----------------------------------------------------|

e|----5-5-5-5-5-5-5-5-5-5-5-5-5-5-5-5-5-5-5-5-5-5-5-5-5-5-5-5-5-5-5-5----|x2
B|----5-5-5-5-5-5-5-5-7-7-7-7-7-7-7-7-7-7-7-7-7-7-7-7-5-5-5-5-5-5-5-5------|
G|----6-6-6-6-6-6-6-6-7-7-7-7-7-7-7-7-7-7-7-7-7-7-7-7-6-6-6-6-6-6-6-6--(9)-|
D|----7-7-7-7-7-7-7-7-7-7-7-7-7-7-7-7-7-7-7-7-7-7-7-7-7-7-7-7-7-7-7-7------|
A|----7-7-7-7-7-7-7-7-5-5-5-5-5-5-5-5-5-5-5-5-5-5-5-5-7-7-7-7-7-7-7-7------|
E|----5-5-5-5-5-5-5-5---------------------------------5-5-5-5-5-5-5-5------|

Chorus
e|-----------------------------------------------------------------------|x4
B|----------------------------------------------------------2--------------|
G|------------6/7--------4-4--2----------6/7----------------2--------------|
D|-----7-7-7--6/7--5--5--4-4--2----7-7-7-6/7--5--5--7-7-----2--------------|
A|-----7-7-7--4/5--5--5--2-2--0----7-7-7-4/5--5--5--7-7-----0--------------|
E|-----5-5-5-------3--3------------5-5-5------3--3--5-5--------------------|
Tap to rate this tab
 
# A B C D E F G H I J K L M N O P Q R S T U V W X Y Z