Song name
# A B C D E F G H I J K L M N O P Q R S T U V W X Y Z

Hawk Nelson - Fourteen tab

Tuning: Drop D (DAdGBE)

| ~  let ring

Really powerful song. Most of it is piano, but the guitar does come in starting at 
the bridge. Here's how it goes:

[Bridge] I put an extra dash in between every set of eight notes to help give a 
sense of structure to the solo; it has nothing to do with how far apart the notes 
actually are in the song.
E|----------------------------------------------------| \
B|---------------------------------------15-13-12-10--| |
G|--16-16-16-16-16-17-16-11--11-11-11-11--------------| |
d|----------------------------------------------------| |
A|----------------------------------------------------| |
D|----------------------------------------------------| |
                                                        | x6
E|---------------------------------------------|        |
B|-----------------10-12-----------------------|        |
G|--12-12-12-12-12-------9--9-9-9-9-9-9-11-12--|        |
d|---------------------------------------------|        |
A|---------------------------------------------|        |
D|---------------------------------------------|        /

This comes in after the fourth repeat of the above solo. Rhythm not posted from here on out
E|-----------------------------------------------------------------------|
B|-----------------------------------------------------------------------|
G|------------7--------4--------5--------12-----------------4--------5---|
d|---5--------7--------4--------5--------12--------0--------4--------5---|
A|---5--------5--------2--------3--------10--------0--------2--------3---|
D|---5---------------------------------------------0---------------------|

[Last Chorus]                              End on this
E|----------------------------------|      E|--------|
B|----------------------------------|      B|--------|
G|------------5---------------------| x3   G|--------|
d|---2--------5--------5--------0---|      d|---2~---|
A|---2--------3--------5--------0---|      A|---2~---|
D|---2-----------------5--------0---|      D|---2~---|

God bless. :)
Tap to rate this tab
# A B C D E F G H I J K L M N O P Q R S T U V W X Y Z