Hawk Nelson - Show tab

One of my new favs and I hope u enjoy :) This is tab is in Drop C#

Intro x2
eb---------------------------------------------------------------------|
Bb---------------------------------------------------------------------|
Gb---------------------------------------------------------------------|
C#---x-14-12-12-11----------------------------------x-x-x-x-x-x-x-x----|
Ab---x-------------14-12-12-14-11-11-12-12-12-11-11-x-x-x-x-x-x-x-x----|
C#---------------------------------------------------------------------|

Verse x4
eb-------------------------|
Bb-------------------------|
Gb-------------------------|
C#---2-x-6-7-x-0-0-4-4-2-2-|
Ab---2-x-6-7-x-0-0-4-4-2-2-|
C#---2-x-6-7-x-0-0-4-4-2-2-|

Chorus x4
eb-------------------------------|
Bb-------------------------------|
Gb-------------------------------|
C#---2-2-2-6-7-x-x-0-x-x-4-4-2-2-|
Ab---2-2-2-6-7-x-x-0-x-x-4-4-2-2-|
C#---2-2-2-6-7-x-x-0-x-x-4-4-2-2-|

Pre-Verse
eb----------------------------------------------------|
Bb----------------------------------------------------|
Gb---------12-13-14-----------------------------------|
C#---14-12-12-13-14-----------------------------------|
Ab------------------12-12-14-11-11-12-12-12-11-11-----|
C#----------------------------------------------------|

Verse x2

Chorus x3

Then do this
eb---------------------------------|
Bb---------------------------------|
Gb---------------------------------|
C#---2-2-2-6-7-x-x-0-x-x-4-4-2-2-2-|
Ab---2-2-2-6-7-x-x-0-x-x-4-4-2-2-2-|
C#---2-2-2-6-7-x-x-0-x-x-4-4-2-2-2-|

Bridge Part 1 x2
eb--------------------|
Bb-------9---9--------|
Gb---9---7---7---9----|
C#---7-----------7----|
Ab--------------------|
C#--------------------|

Bridge Part 2 x2
eb----------------------------------------|
Bb-----------9999999999999999-------------|
Gb---99999999777777777777777799999999-----|
C#---77777777----------------77777777-----|
Ab----------------------------------------|
C#----------------------------------------|

Chorus x8

Outro x2
eb--------------------------------------------|
Bb--------------------------------------------|
Gb--------------------------------------------|
C#---2-2-4~-0-x-2-2-4~-0-x-2-2-4~-0-0-1-2-----|
Ab---2-2-4~-0-x-2-2-4~-0-x-2-2-4~-0-0-1-2-----|
C#---2-2-4~-0-x-2-2-4~-0-x-2-2-4~-0-0-1-2-----|
Tap to rate this tab
 
# A B C D E F G H I J K L M N O P Q R S T U V W X Y Z