Song name
# A B C D E F G H I J K L M N O P Q R S T U V W X Y Z

Hawk Nelson - Crazy Love tab

Ok so this is my first tab ever but its right. the intro and chorus is really easy but 
the solo is pretty sketchy. It might take some practice to get the solo down perfectly. 
Please rate and tell me how i did!

Intro/Chorus
Guitar 1
E. -555555-77-8 8 8 8 8 8 -33-11111111-33333333--|
A. -777777-99-101010101010-55-33333333-55555555--| X2
D. -777777-99-101010101010-55-33333333-55555555--|
G. ----------------------------------------------|
B. ----------------------------------------------|
e. ----------------------------------------------|

on the second time through the intro the second guitar plays something like this a couple times

E. ----------------------------------------------|
A. ----------------------------------------------|
D. -14-14 14-14 14-14 14-------------------------|
G. ----------------------------------------------|
B. -12-12 12-12 12-12 12-------------------------|
e. ----------------------------------------------|

Verse
mostly just keyboard but youll play each of these and let them ring

E. -5---8---1---3---------|
A. -7---10--3---5---------| x2
D. -7---10--3---5---------|
G. -----------------------|
B. -----------------------|
e. -----------------------|


chorus - same thing as intro
verse again

solo

E. ---------------------------------------------------------------------------|
A. -12-15---------------------------------------------------------------------|
D. ------12-14----------------------------------------------------------------|
G. -----------12-14----------14------------------------------14-----14-12-14--|
B. -----------------13-15b-13----13-15-17--15-13-17--15-13-12--13-12----------|
e. --------------------------------------15-----------------------------------|

E. ------------------------------------------------------------------------|
A. --------14-12-14--------------------------------------------------------|
D. 14-12-14--------12-14---------------------------------------------------|
G. ---------------------12-14------------12b-12b-14b-14b-15b-15b-17b-17b---|
B. --------------------------13-15-----------------------------------------|
e. ------------------------------------------------------------------------|

E. ---------------------------------------------------------------------|
A. ---------------------------------------------------------------------|
D. ---------------------------------------------------------------------|
G. ---------------------------------------------------------------------|
B. 11-15-17--15-11-17---------------------------------------------------|
e. --------15---------17-17-17-17-17-17-17------------------------------|

hold that last note and then slide it down


repeat chorus twice and the second time through, play the solo again except staring on 
the 5th fret of the A string


Hawk Nelson is really awesome. just sayin
Tap to rate this tab
# A B C D E F G H I J K L M N O P Q R S T U V W X Y Z