Song name
# A B C D E F G H I J K L M N O P Q R S T U V W X Y Z

Hawk Nelson - Never Enough tab

         Hawk Nelson-Never Enough


Intro:

E--Check song for strumming--
B----------------------------|
G----------------------------|
D--6666-99---222-4-4---------|
A--6666-99---222-4-4---------|Acoustic
E--4444-77---000-2-2--REP----|
    Electric
E-------------------------|
B-------------------------|
G-------------------------|
D--7777-10-10-------------|
A--7777-10-10--7-5-5------|
E--5555-8--8------8-85-3--|

E-------------------------------|
B-------------------------------|
G-------------------------------|
D--7777-10-10---5-7-5-5---------|
A--7777-10-10--------7--5h7p5---|
E--5555-8--8-----------------8--|
Tap to rate this tab
 
# A B C D E F G H I J K L M N O P Q R S T U V W X Y Z