Song name
# A B C D E F G H I J K L M N O P Q R S T U V W X Y Z

Hawk Nelson - My Next Breath tab

-----------------------------------------------------------------------------
			     MY NEXT BREATH - Hawk Nelson
-----------------------------------------------------------------------------

Tabbed by: Sam Gardiner
Email: sam@godtunesreviews.com

Tuning: Standard Tuning

INTRO

e|--------3-----------|
B|-----3-----3--------|
G|--0-----------------|
D|--------------------|X8
A|--------------------|
E|--------------------|

VERSE

e|--------3-----------|
B|-----3-----3--------|
G|--0-----------------|
D|--------------------|X4
A|--------------------|
E|--------------------|


e|--------0-----------|
B|-----3-----3--------|
G|--0-----------------|
D|--------------------|X4
A|--------------------|
E|--------------------|


e|--------2-----------|
B|-----3-----3--------|
G|--------------------|
D|--0-----------------|X4
A|--------------------|
E|--------------------|

e|--------0-----------|
B|-----3-----3--------|
G|--------------------|
D|--------------------|X4
A|--3-----------------|
E|--------------------|

CHORUS

e|-----7-----7-----7----5----5----5------------------------------------------|
B|--10----10----10----8----8----8--------------------------------------------|
G|---------------------------------------------------------------------------|
D|---------------------------------------------------------------------------|x4
A|---------------------------------------------------------------------------|
E|---------------------------------------------------------------------------|
Tap to rate this tab
# A B C D E F G H I J K L M N O P Q R S T U V W X Y Z