Song name
# A B C D E F G H I J K L M N O P Q R S T U V W X Y Z

Hawk Nelson - From Underneath tab

Help us improve GuitareTab! Take a short survey!
im lazy but the other tab sounded nothing like the song so here what i hear instead.

-------------------------------------------------------------------------------
			     FROM UNDERNEATH - hawk nelson
-------------------------------------------------------------------------------
Tabbed by:Geoff Hull
Email:Geoffrotism@verizon.net

Tuning:standard

all 16th notes
4/4 time
    B     G#m     F#     E
e|---------------------------------------------------------------------------|
B|---------------------------------------------------------------------------|
G|-4-------------------------------------------------------------------------|
D|-4(16x)-6------4------2----------------------------------------------------|Intro
A|-2------6(16x)-4(16x)-2(16x)-----------------------------------------------|
E|--------4------2------0----------------------------------------------------|
   B      G#m    F#     E       B      
   F#     E
e|----------------------------|-----------------------------------------------|
B|----------------------------|-----------------------------------------------|
G|-4--------------------------|-4---------------------------------------------|
D|-2(16x)-6------4------2-----|-4(16x)-6------4------2------------------------|Verse
A|-2------4(16x)-2(16x)-2(16x)|-2------6(16x)-4(16x)-2(16x)-------------------|
E|--------4------2------0-----|--------4------2------0------------------------|
   B      F#     G#m    E
e|---------------------------------------------------------------------------|
B|---------------------------------------------------------------------------|
G|-4-------------------------------------------------------------------------|
D|-4(16x)-4------6------2----------------------------------------------------|Pre-chorus
A|-2------4(16x)-4(16x)-2(16x)-----------------------------------------------|
E|--------2------4------0----------------------------------------------------|

   B      G#m    F#     E       B      
   F#     E
e|----------------------------|-----------------------------------------------|
B|----------------------------|-----------------------------------------------|
G|-4--------------------------|-4---------------------------------------------|
D|-2(16x)-6------4------2-----|-4(16x)-6------4------2------------------------|Chorus
A|-2------4(16x)-2(16x)-2(16x)|-2------6(16x)-4(16x)-2(16x)-------------------|
E|--------4------2------0-----|--------4------2------0------------------------|

p.s. heres the little bell sound thing at the intro of the song. the rhythm would be to 
to write out, but each note is equal to an sixteenth note  and if u listen closely u can 
the rhythm guitar hit the sixteenth note, that falls on the quarter note, harder then the other notes.
ex.. 1 e & a, 2 e & a, bam tap tap tap, bam tap tap tap.. its hard to explain


   1 e & a 2 e & a 3  e & a  4 
 & a  1 e & a 2 e & a 3  e & a 4 e &  a
e|-r-r-r-r-r-r-r-r-14-r-r-12-r-11-r-r-|7-r-r-r-r-r-r-r-14-r-r-12-r-r-11-r-|-9-r-r-r-r-r-r-r-9-r-r-r-11-r-r-7-r-|-r-r-r-r-r-r-r-r-9-r-r-11-r-7-r-|7----|
B|------------------------------------|-----------------------------------|------------------------------------|--------------------------------|-----|
G|------------------------------------|-----------------------------------|------------------------------------|--------------------------------|-----|
D|------------------------------------|-----------------------------------|------------------------------------|--------------------------------|-----|
A|------------------------------------|-----------------------------------|------------------------------------|--------------------------------|-----|
E|------------------------------------|-----------------------------------|------------------------------------|--------------------------------|-----|

| /  slide up
| \  slide down
| h  hammer-on
| p  pull-off
| ~  vibrato
| +  harmonic
| x  Mute note
| r  sixteenth rest
===============================================================================
Related for From Underneath tab