Song name
# A B C D E F G H I J K L M N O P Q R S T U V W X Y Z

Hawk Nelson - One Thing I Have Left tab

The One Thing I Have Left – Hawk Nelson
Verse 1:

e|-----------------------------------------------------------------------------------|
B|-----------------------------------------------------------------------------------|
G|--6-6-6-6--9-9-9-9--4-4-4-4--8-8-8-8----6-6---6-6\4-4---9-9---4-4------------------|
D|--6-6-6-6--9-9-9-9--4-4-4-4--8-8-8-8----6-6---6-6\4-4---9-9---4-4------------------| 
A|--4-4-4-4--7-7-7-7--2-2-2-2--6-6-6-6----4-4---4-4\2-2---7-7---2-2---2-4------------|
E|------------------------------------------------------------------4----------------|
********* palm mute **************

e|-----------------------------------------------------------------------------------|
B|-----------------------------------------------------------------------------------|
G|--6-6-6-6--4-4-4-4--8-8-8-8--9-9-9-9----6-6---6-6\4-4---9-9---4-4------------------|
D|--6-6-6-6--4-4-4-4--8-8-8-8--9-9-9-9----6-6---6-6\4-4---9-9---4-4------------------| 
A|--4-4-4-4—-2-2-2-2--6-6-6-6--7-7-7-7----4-4---4-4\2-2---7-7---2-2---2-4------------|
E|------------------------------------------------------------------4----------------|
********* palm mute **************


e|-----------------------------------------------------------------------------------|
B|-----------------------------------------------------------------------------------|
G|--6-6-6-6--9-9-9-9--4-4-4-4--8-8-8-8----6-6---6-6\4-4---9-9---4-4------------------|
D|--6-6-6-6--9-9-9-9--4-4-4-4--8-8-8-8----6-6---6-6\4-4---9-9---4-4------------------| 
A|--4-4-4-4--7-7-7-7--2-2-2-2--6-6-6-6----4-4---4-4\2-2---7-7---2-2---2-4------------|
E|------------------------------------------------------------------4----------------|
********* palm mute **************

e|-----------------------------------------------------------------------------------|
B|-----------------------------------------------------------------------------------|
G|--6-6-6-6--4-4-4-4--8-8-8-8--9-9-9-9----6-6---6-6\4-4---9-9---4-4------------------|
D|--6-6-6-6--4-4-4-4--8-8-8-8--9-9-9-9----6-6---6-6\4-4---9-9---4-4------------------| 
A|--4-4-4-4—-2-2-2-2--6-6-6-6--7-7-7-7----4-4---4-4\2-2---7-7---2-2---2-4------------|
E|------------------------------------------------------------------4----------------|
********* palm mute **************

Pre-chorus:

e|--0--0------2--2-----4--4-----2-2--------|
B|--2----2----4---4----5---5----4--4-------|
G|--2-----2---4----4---6----6---4----4-----|
D|--2---------4--------6--------4----------| 
A|--0---------2--------4--------2----------|
E|-----------------------------------------|

e|--0--0------2--2-------------------------|
B|--2----2----4---4------------------------|
G|--2-----2---4----4----6-6---6-6\4-4--9-9-|
D|--2---------4---------6-6---6-6\4-4--9-9-| 
A|--0---------2---------4-4---4-4\2-2--7-7-|
E|-----------------------------------------|

Chorus:

e|-----------------------------------------------------------------------------------|
B|--2-2-2-2-2-2-2-2--4-4-4-4-4-4-4-4--5-5-5-5-5-5-5-5--4-4-4-4-x-4-x-4---------------|
G|--2-2-2-2-2-2-2-2--4-4-4-4-4-4-4-4--6-6-6-6-6-6-6-6--4-4-4-4-x-4-x-4---------------|
D|--2-2-2-2-2-2-2-2--4-4-4-4-4-4-4-4--6-6-6-6-6-6-6-6--4-4-4-4-x-4-x-4---------------| 
A|--0-0-0-0-0-0-0-0--2-2-2-2-2-2-2-2--4-4-4-4-4-4-4-4--2-2-2-2-x-2-x-2---------------|
E|-----------------------------------------------------------------------------------|




e|-----------------------------------------------------------------------------------|
B|--2-2-2-2-2-2-2-2--4-4-4-4-4-4-4-4-------------------------------------------------|
G|--2-2-2-2-2-2-2-2--4-4-4-4-4-4-4-4--x-6-6-6--x-4-4-4--x-9-9-9--x-4-x-4-------------|
D|--2-2-2-2-2-2-2-2--4-4-4-4-4-4-4-4--x-6-6-6--x-4-4-4--x-9-9-9--x-4-x-4-------------| 
A|--0-0-0-0-0-0-0-0--2-2-2-2-2-2-2-2--x-4-4-4--x-2-2-2--x-7-7-7--x-2-x-2-------------|
E|-----------------------------------------------------------------------------------|

e|-----------------------------------------------------------------------------------|
B|--2-2-2-2-2-2-2-2--4-4-4-4-4-4-4-4--5-5-5-5-5-5-5-5--4-4-4-4-x-4-x-4---------------|
G|--2-2-2-2-2-2-2-2--4-4-4-4-4-4-4-4--6-6-6-6-6-6-6-6--4-4-4-4-x-4-x-4---------------|
D|--2-2-2-2-2-2-2-2--4-4-4-4-4-4-4-4--6-6-6-6-6-6-6-6--4-4-4-4-x-4-x-4---------------| 
A|--0-0-0-0-0-0-0-0--2-2-2-2-2-2-2-2--4-4-4-4-4-4-4-4--2-2-2-2-x-2-x-2---------------|
E|-----------------------------------------------------------------------------------|

e|-----------------------------------------------------------------------------------|
B|--2-2-2-2-2-2-2-2--4-4-4-4-4-4-4-4-------------------------------------------------|
G|--2-2-2-2-2-2-2-2--4-4-4-4-4-4-4-4--6-6---6-6\4-4---9-9---4-4----------------------|
D|--2-2-2-2-2-2-2-2--4-4-4-4-4-4-4-4--6-6---6-6\4-4---9-9---4-4----------------------| 
A|--0-0-0-0-0-0-0-0--2-2-2-2-2-2-2-2--4-4---4-4\2-2---7-7---2-2---2-4----------------|
E|--------------------------------------------------------------4--------------------|


Verse 2:

e|-----------------------------------------------------------------------------------|
B|-----------------------------------------------------------------------------------|
G|----------------------------------------6-6---6-6\4-4---9-9---4-4------------------|
D|----------------------------------------6-6---6-6\4-4---9-9---4-4------------------| 
A|----------------------------------------4-4---4-4\2-2---7-7---2-2---2-4------------|
E|------------------------------------------------------------------4----------------|
****[“and i swear we were born …]****



e|-----------------------------------------------------------------------------------|
B|-----------------------------------------------------------------------------------|
G|-------------------------------------------6-6---6-6\4-4---9-9---4-4---------------|
D|-------------------------------------------6-6---6-6\4-4---9-9---4-4---------------| 
A|-------------------------------------------4-4---4-4\2-2---7-7---2-2---2-4---------|
E|---------------------------------------------------------------------4-------------|

guitar 1	e|--4-4--------------------------------------------------------------------|
	B|----------4--4-------7--7--------4-----4--5------------------------------|
	G|------6-6-------6-6--------4--4------4-----------------------------------|
	D|-------------------------------------------------------------------------| 
	A|-------------------------------------------------------------------------|
	E|-------------------------------------------------------------------------|
    ****[“we scream but never make a…”]****


e|-----------------------------------------------------------------------------------|
B|-----------------------------------------------------------------------------------|
G|-------------------------------------------6-6---6-6\4-4---9-9---4-4---------------|
D|-------------------------------------------6-6---6-6\4-4---9-9---4-4---------------| 
A|-------------------------------------------4-4---4-4\2-2---7-7---2-2---2-4---------|
E|---------------------------------------------------------------------4-------------|

guitar 1	e|--4-4--------------------------------------------------------------------|
	B|----------4--4-------7--7--------4-----4--5------------------------------|
	G|------6-6-------6-6--------4--4------4-----------------------------------|
	D|-------------------------------------------------------------------------| 
	A|-------------------------------------------------------------------------|
	E|-------------------------------------------------------------------------|

guitar 2	e|--9-9--------------------------------------------------------------------|
	B|------9-9-12-12-9-9-----------------------9------------------------------|
	G|---------------------11-11-------11----11--------------------------------|
	D|---------------------------11-11----11-----------------------------------| 
	A|-------------------------------------------------------------------------|
	E|-------------------------------------------------------------------------|
	   ****[We point but don’t know…”]****







e|-----------------------------------------------------------------------------------|
B|-----------------------------------------------------------------------------------|
G|-------------------------------------------6-6---6-6\4-4---9-9---4-4---------------|
D|-------------------------------------------6-6---6-6\4-4---9-9---4-4---------------| 
A|-------------------------------------------4-4---4-4\2-2---7-7---2-2---2-4---------|
E|---------------------------------------------------------------------4-------------|

guitar 1	e|--4-4--------------------------------------------------------------------|
	B|----------4--4-------7--7--------4-----4--5------------------------------|
	G|------6-6-------6-6--------4--4------4-----------------------------------|
	D|-------------------------------------------------------------------------| 
	A|-------------------------------------------------------------------------|
	E|-------------------------------------------------------------------------|

guitar 2	e|--9-9--------------------------------------------------------------------|
	B|------9-9-12-12-9-9-----------------------9------------------------------|
	G|---------------------11-11-------11----11--------------------------------|
	D|---------------------------11-11----11-----------------------------------| 
	A|-------------------------------------------------------------------------|
	E|-------------------------------------------------------------------------|
    ****[We are America…”]****


Pre-chorus:

e|--0--0------2--2-----4--4-----2-2--------|
B|--2----2----4---4----5---5----4--4-------|
G|--2-----2---4----4---6----6---4----4-----|
D|--2---------4--------6--------4----------| 
A|--0---------2--------4--------2----------|
E|-----------------------------------------|

e|--0--0------2--2-------------------------|
B|--2----2----4---4------------------------|
G|--2-----2---4----4----6-6---6-6\4-4--9-9-|
D|--2---------4---------6-6---6-6\4-4--9-9-| 
A|--0---------2---------4-4---4-4\2-2--7-7-|
E|-----------------------------------------|

Chorus:

e|-----------------------------------------------------------------------------------|
B|--2-2-2-2-2-2-2-2--4-4-4-4-4-4-4-4--5-5-5-5-5-5-5-5--4-4-4-4-x-4-x-4---------------|
G|--2-2-2-2-2-2-2-2--4-4-4-4-4-4-4-4--6-6-6-6-6-6-6-6--4-4-4-4-x-4-x-4---------------|
D|--2-2-2-2-2-2-2-2--4-4-4-4-4-4-4-4--6-6-6-6-6-6-6-6--4-4-4-4-x-4-x-4---------------| 
A|--0-0-0-0-0-0-0-0--2-2-2-2-2-2-2-2--4-4-4-4-4-4-4-4--2-2-2-2-x-2-x-2---------------|
E|-----------------------------------------------------------------------------------|




e|-----------------------------------------------------------------------------------|
B|--2-2-2-2-2-2-2-2--4-4-4-4-4-4-4-4-------------------------------------------------|
G|--2-2-2-2-2-2-2-2--4-4-4-4-4-4-4-4--x-6-6-6--x-4-4-4--x-9-9-9--x-4-x-4-------------|
D|--2-2-2-2-2-2-2-2--4-4-4-4-4-4-4-4--x-6-6-6--x-4-4-4--x-9-9-9--x-4-x-4-------------| 
A|--0-0-0-0-0-0-0-0--2-2-2-2-2-2-2-2--x-4-4-4--x-2-2-2--x-7-7-7--x-2-x-2-------------|
E|-----------------------------------------------------------------------------------|

e|-----------------------------------------------------------------------------------|
B|--2-2-2-2-2-2-2-2--4-4-4-4-4-4-4-4--5-5-5-5-5-5-5-5--4-4-4-4-x-4-x-4---------------|
G|--2-2-2-2-2-2-2-2--4-4-4-4-4-4-4-4--6-6-6-6-6-6-6-6--4-4-4-4-x-4-x-4---------------|
D|--2-2-2-2-2-2-2-2--4-4-4-4-4-4-4-4--6-6-6-6-6-6-6-6--4-4-4-4-x-4-x-4---------------| 
A|--0-0-0-0-0-0-0-0--2-2-2-2-2-2-2-2--4-4-4-4-4-4-4-4--2-2-2-2-x-2-x-2---------------|
E|-----------------------------------------------------------------------------------|

e|-----------------------------------------------------------------------------------|
B|--2-2-2-2-2-2-2-2--4-4-4-4-4-4-4-4-------------------------------------------------|
G|--2-2-2-2-2-2-2-2--4-4-4-4-4-4-4-4-------------------------------------------------|
D|--2-2-2-2-2-2-2-2--4-4-4-4-4-4-4-4-------------------------------------------------| 
A|--0-0-0-0-0-0-0-0--2-2-2-2-2-2-2-2-------------------------------------------------|
E|-----------------------------------------------------------------------------------|
Ending:

guitar 1	e|-----------------------------------------------------------------------------------|
	B|-----------------------------------------------------------------------------------|
	G|---6---6-6-6-6--6-6--------6---6-6-6-6--6-6----------------------------------------|
	D|--------------------7-6---------------------7-6------------------------------------| 
	A|-----------------------------------------------------------------------------------|
	E|-----------------------------------------------------------------------------------|

guitar 1	e|-----------------------------------------------------------------------------------|
	B|-----------------------------------------------------------------------------------|
	G|---6---6-6-6-6--6-6--------6---6-6-6-6--6-6----------------------------------------|
	D|--------------------7-6---------------------7-7------------------------------------| 
	A|--------------------------------------------7-7------------------------------------|
	E|--------------------------------------------5-5------------------------------------|

e|-----------------------------------------------------------------------------------|
B|-----------------------------------------------------------------------------------|
G|--6--6--6--------6--6--6--------6--6--6---------6--6--9--11--9--8------------------|
D|--6--6--6--7-6---6--6--6--7-6---6--6--6--7-6----6--6--9--11--9--8------------------| 
A|--4--4--4--7-6---4--4--4--7-6---4--4--4--7-6----4--4--7--9---7--6------------------|
E|--4--4--4--5-4---4--4--4--5-4---4--4--4--5-4----4--4--7--9---7--6------------------|

e|-----------------------------------------------------------------------------------|
B|-----------------------------------------------------------------------------------|
G|--6--6--6--------6--6--6--------6--6--6---------6--6--9--11--9--8------------------|
D|--6--6--6--7-6---6--6--6--7-6---6--6--6--7-6----6--6--9--11--9--8------------------| 
A|--4--4--4--7-6---4--4--4--7-6---4--4--4--7-6----4--4--7--9---7--6------------------|
E|--4--4--4--5-4---4--4--4--5-4---4--4--4--5-4----4--4--7--9---7--6------------------|
****[“How can I be…”]****

e|------------5--------------7-------------9-----------------------------------------|
B|------------8b-------------10b-----------12b---------------------------------------|
G|--6--6--6--------6--6--6--------6--6--6---------6--6--9--11--9--8------------------|
D|--6--6--6--------6--6--6--------6--6--6---------6--6--9--11--9--8------------------| 
A|--4--4--4--------4--4--4--------4--4--4---------4--4--7--9---7--6------------------|
E|--4--4--4--------4--4--4--------4--4--4---------4--4--7--9---7--6------------------|
****[“How can I be…”]****

e|----------------------------------------------------------------|
B|---------------8-8------------------8-8----------------8-8------|
G|--6--6-6--6-6-------6--6--6-6--6-6------6--6--6-6--6-6------6---|
D|--6--6-6--6-6----------6--6-6--6-6---------6--6-6--6-6----------| 
A|--4--4-4--4-4----------4--4-4--4-4---------4--4-4--4-4----------|
E|--4--4-4--4-4----------4--4-4--4-4---------4--4-4--4-4----------|
****[“Hey! Hey! Don’t wanna be the…”]****

e|------------------------------------------------|
B|------------------------------------------------|
G|---6--6--9--11--9--8--6--6--9--11--9--8---------|
D|---6--6--9--11--9--8--6--6--9--11--9--8---------| 
A|---4--4--7--9---7--6--4--4--7--9---7--6---------|
E|---4--4--7--9---7--6--4--4--7--9---7--6---------|
****[“Cause we point the finger…”]****

e|-----------------------------------------------------------------------------------|
B|-----------------------------------------------------------------------------------|
G|--4---------4-4-4-4---6-6-6-6--6--6--9--11--9--8--6---------------------------------|
D|--4---------4-4-4-4---6-6-6-6--6--6--9--11--9--8--6---------------------------------| 
A|--2---------2-2-2-2---4-4-4-4--4--4--7--9---7--6--4---------------------------------|
E|--2---------2-2-2-2---4-4-4-4--4--4--7--9---7--6--4---------------------------------|
****[“Blame...Bla-a-ame..........Everyone else is to blame”]****
Tap to rate this tab
# A B C D E F G H I J K L M N O P Q R S T U V W X Y Z