Guitaretab - guitar tabs
Song name
# A B C D E F G H I J K L M N O P Q R S T U V W X Y Z

Hawk Nelson - The One Thing I Have Left tab

The One Thing I Have Left
Hawk Nelson
Smile, Itís The End Of The World

Tuning: Standard e-b-g-d-a-e


Verse 1:
E|---------------------------------------------------------------------------|
B|---------------------------------------------------------------------------|
G|---------------------------------------------------------------------------|
D|--6666---9999---4444---8888------66---444444--99--44244--------------------|
A|--4444---7777---2222---6666------44---222222--77--22022--------------------|
E|---------------------------------------------------------------------------|

|--------------------------------------------------------------------------|
|--------------------------------------------------------------------------|
|--------------------------------------------------------------------------|
|--6666--4444--8888--9999---------66--444444--99--44244--------------------|
|--4444--2222--6666--7777---------44--222222--77--22022--------------------|
|--------------------------------------------------------------------------|
       *You need 2 figure out the palm muting
[ Tab from: http://www.guitaretab.com/h/hawk-nelson/94030.html ]
Pre-Chorus:
|----------------------------------------------------------|
|----------------------------------------------------------|
|----------------------------------------------------------|
|--2----4---6---4---2---4-----66---444444--99\-------------|
|--0----2---4---2---0---2-----44---222222--77\-------------|
|----------------------------------------------------------|

Chorus:
|----------------------------------------------------------------------------------------|
|----------------------------------------------------------------------------------------|
|----------------------------------------------------------------------------------------|
|--22222222--44444444--66666666--44444444--22222222--44444444----------------------------|
|--00000000--22222222--44444444--22222222--00000000--22222222----------------------------|
|----------------------------------------------------------------------------------------|

|--------------------------------------|
|--------------------------------------|        *Repeat those twice
|--------------------------------------|
|--666--444--999--4-4------------------|
|--444--222--777--2-2------------------|
|--------------------------------------|

Bridge:
|---------------------|                       E mail me at flamingdude2004@hotmail.com and
|--Repeat 3 times-|                                      tell me what u thought!!
|--------------------------------|
|-------------7------------------|
|--777777--5---------------------|
|--555555------------------------|            I will update this later
Related for The One Thing I Have Left tab