Song name
# A B C D E F G H I J K L M N O P Q R S T U V W X Y Z

Hawkboy - Damnkneesya tab

-------------------------------------------------------------------------------
			     Damnkneesya - Hawkboy
-------------------------------------------------------------------------------
Tabbed by: Aaron Trinkner
Email: drummersrpeople2@yahoo.com

Tuning: Drop D
VERSE 1 I will free ya...
e|---------------------------------------------------------------------------------|
B|---------------------------------------------------------------------------------|
G|---------------------------------------------------------------------------------|
D|----4-------4-----7-------4-------4---------7------4-----4----7------------------|
A|--2-----0------5--------2------0---------5------2-----0----5-------7---5---------|
E|---------------------------------------------------------------------5----5------|
INTERLUDE
e|----------------------------------------------------------------------------------|
B|----------------------------------------------------------------------------------|
G|-4-----2-------2-----4------2-----2-----4----2----2-------------------------------|
D|----4------4------0------4------4----0-----4----4----0----2------0----------------|
A|----------------------------------------------------------------------------------|
E|----------------------------------------------------------------5-----5-----------|
VERSE 2 Can I make you a believer...
e|-----------------------------------------------------------------------------------|
B|-----------------------------------------------------------------------------------|
G|-----------------------------------------------------------------------------------|
D|----4-------4-----7-------4-------4-----------7----4-----4----7--------------------|
A|--2-----0------5---------2-----0-----------5----2-----0----5-------7---5-----------|
E|---------------------------------------------------------------------5----5--------|
BRIDGE  Now you just want a bridge over the valley..
e|--4-------5------------------------------------------------|
B|--7-------7------7----10--5--------------------------------|
G|--6-------6------7-----9--7---5----------------------------| The cords are a little iffy. 
D|--6-------4------5-----7--9---5----------------------------| Feel free to correct them.
A|--4--------------5-----7--5---5----------------------------|
E|--4---------------------------5----------------------------|
VERSE 3 But you're really free...
e|---------------------------------------------------------------------------|
B|---------------------------------------------------------------------------|
G|---------------------------------------------------------------------------|
D|--9--7--12----9--7--12----9--7--12---5-------------------------------------|
A|--9--7--12----9--7--12----9--7--12---5-------------------------------------|
E|--9--7--12----9--7--12----9--7--12---5-------------------------------------|
OUTRO PART ONE
e|--------------------------------------------------------------------------|
B|--2------------4-----2----------4---2------------4------------------------|
G|-----4--4--0----------4--4---0--------4-4--0------------------------------|
D|---------------------------------------------------------2-----0----------|
A|------------------------------------------------------------5-------5-----|
E|--------------------------------------------------------------------------|

OUTRO PART 2
e|---------------------------------------------------------------------------|
B|---------------------------------------------------------------------------|
G|---4----2---2-------4----2----2------4---2----2----------------------------|
D|-----4----4----0------4-----4----0-----4----4---0---2-----0----------------|
A|---------------------------------------------------------------------------|
E|-------------------------------------------------------------5------5------|
ALTERNATIVE ENDING (OUTRO PART 2)
e|---------------------------------------------------------------------------|
B|---------------------------------------------------------------------------|
G|---4----2---2-------4----2----2------4---2----2----------------------------|
D|-----4----4----0------4-----4----0-----4----4---0---2-----4---2------------|
A|---------------------------------------------------------------------------|
E|-------------------------------------------------------5-------------------|

In the ending the OUTRO PART 2 goes first and then the alternative ending.
They continue to switch back and forth for the entire ending.
Also this is my first attempt at tabbing so hopefully itís up to standards.

http://regeneratemusicco.com/artists/hawkboy.php

************************************

| /   slide up
| \   slide down
| h   hammer-on
| p   pull-off
| ~   vibrato
| +   harmonic
| x   Mute note
| b   Bend
| pb  Pre-bend
| br  Bend release
| pbr Pre-bend release
| brb Bend release bend

************************************
Tap to rate this tab
# A B C D E F G H I J K L M N O P Q R S T U V W X Y Z