Song name
# A B C D E F G H I J K L M N O P Q R S T U V W X Y Z

Hawksley Workman - Safe And Sound tab

-------------------------------------------------------------------------------
			     Safe and Sound - Rebolution
-------------------------------------------------------------------------------
Tabbed by:Gregferrigno
Email:gregferrigno@yahoo.com

Tuning:

e|----2--5-3--3-2-0----------0-2-3-0-2-----------------------------------|
B|---3--------------3-2--2-3-----------3---------------------------------|
G|--4--------------------------------------------------------------------|
D|-----------------------------------------------------------------------|
A|-----------------------------------------------------------------------|
E|-----------------------------------------------------------------------|

e|----2--5-3--3-2-0----------0---2---0---------------------------------------------------|
B|---3--------------3-2--2-3-----3---0---3-----------------------------------------------|
G|--4----------------------------4---0---0-----------------------------------------------|
D|---------------------------------------------------------------------------------------|
A|---------------------------------------------------------------------------------------|
E|---------------------------------------------------------------------------------------|
Chorus
e|--5-----5-----3-----3------------------------------------------------------------|
B|--5-----7-----3-----5------------------------------------------------------------|
G|--6-----7-----4-----5------------------------------------------------------------|
D|--7-----7-----5-----5------------------------------------------------------------|
A|---------------------------------------------------------------------------------|
E|---------------------------------------------------------------------------------|
Verse
e|--5-----5-----5-----7------------------------------------------------------------|
B|--5-----5-----6-----8------------------------------------------------------------|
G|--5-----5-----7-----9------------------------------------------------------------|
D|--7-----7-----7-----9------------------------------------------------------------|
A|---------------------------------------------------------------------------------|
E|---------------------------------------------------------------------------------|
Tap to rate this tab
 
# A B C D E F G H I J K L M N O P Q R S T U V W X Y Z