Song name
# A B C D E F G H I J K L M N O P Q R S T U V W X Y Z

Hawksley Workman - Safe And Sound tab

-------------------------------------------------------------------------------
			     Safe and Sound - Hawksley Workman
-------------------------------------------------------------------------------
Tabbed by: McAvro

Tuning: Standard tuning

This is a great song and there are far too few tabs for it, so I decided to make 
one myself.  This is as close as I could figure it out, and I think it sounds right.  
I can't offer any tips on technique, but I think the notes are right.

Capo on 4th fret

  G           C     C/B C/A G             G
e|-----------|-------------|----------0-3|--7--10-10--|
B|---0-0-0---|1-1-1-1---0-0|---0-1-3-----|------------|
G|-0--------0|----2-2---0-0|-------------|------------|
D|-----------|-------------|-------------|------------|
A|-----------|-------------|-------------|------------|
E|-----------|-------------|-------------|------------|

  Em                         C             D
e|-10-10-10--10--10--10--10-|--7--8-7--8-7|--7--7--7-3--5|
B|-8--8--8---8---8---8---8--|--8--8-8--8-8|--8--8--8-----|
G|--------------------------|-------------|--------------|
D|--------------------------|-------------|--------------|
A|--------------------------|-------------|--------------|
E|--------------------------|-------------|--------------|

  D         C      C/B C/A  G               Bm              
e|---------|--------------0|-3-7-3--0-2-3-2|-0-----------------------|
B|---0-0h1-|0-------0-1-3--|---------------|---3-0-1-0---0-----------|
G|---------|--2-0-2--------|---------------|-----------0---2-0-------|
D|---------|---------------|---------------|-------------------0--0h2|
A|---------|---------------|---------------|-------------------------|
E|---------|---------------|---------------|-------------------------|

  C                    C                   D               G               
e|--------------------|-------------------|---------------|---------------|
B|--------------------|------0-1-2-3--0h1-|0--------------|---------------|
G|-0--0-*2/3\2--0-2---|0---0--------------|---2--2-0----0-|---------------| G and then into chorus
D|------------------2-|-------------------|-----------4---|---------------|
A|--------------------|-------------------|---------------|-3-2-0-2-0-----|
E|--------------------|-------------------|---------------|-----------3-3-|

*I'm not entirely sure how to play this part, so it might need some fiddling to 
make it sound right.

************************************

 / = slide up
 \ = slide down
 h = hammer-on
Tap to rate this tab
# A B C D E F G H I J K L M N O P Q R S T U V W X Y Z