Song name
# A B C D E F G H I J K L M N O P Q R S T U V W X Y Z

Hawksley Workman - Goodbye To Radio chords

Highlighted       Show chord diagrams
Standard Tuning
  G   A4   D   Am   Em   C   B*   D*
e|3--------2---0----7----0---0----0---|
b|3--------3---1----8----1---1----0---|
g|0--------2---2----9----0---0----2---|
d|0---7----0---2----9----2---0----0---|
a|2---5--------0----7----3---2----0---|
e|3---5---------------------------2---|


G         A4     D
Goodbye to radio

Am   Em        D              C
Goodbye to the things that we know

And calculate passages
And bloom like a tiger lily in july

    C  B*  Am   Am  Am/E  
And Lovers will die
 
Am  D*/F#        G              D/F#              C
    and lovers will rise past the darkness we've seen


so stop telling lies 
and start falling blind in the deepest of seas

salvaged by wondering
weighed down by tears that you wish you could cry

and i want to make love with you 
spread you so wide like the bluest of nights

and lovers will die

and lovers will rise past the darkness we've seen

so stop telling lies and start falling blind in the deepest of seas

interlude
*arppegios used*
e|--------------------------------------|
b|--------------------------------------|
g|--2---2---2---2-----------------------|
d|--2---3---2---3------37--25--03-------|
a|-3---3---2---2---03-5---3---1---------|
e|5---5---3---3---1---------------------|

from here on the song continues but in the key of A instead of G
(so either do bar chords which work fine or get a capo on the second fret fast)

and lovers will die
and lovers will rise past the darkness we've seen

so stop telling lies 
and start falling blind in the deepest of seas

*repeat*
Tap to rate this tab
 
# A B C D E F G H I J K L M N O P Q R S T U V W X Y Z