Song name
# A B C D E F G H I J K L M N O P Q R S T U V W X Y Z

Hawksley Workman - When These Mountains Were The Seashore tab

-------------------------------------------------------------------------------
WHEN THE MOUNTAINS WERE THE SEASHORE - Hawksley Workman
-------------------------------------------------------------------------------
Tabbed by:Dylan
E-mail:Vhabyeryemyennahyah_corbe@hotmail.com

Tuning:Standard

this can be transposed to make it easier to play but this is the way I like to do 
it also this solo is on piano and is probably missing harmonies at parts

Piano solo
e|-------------------------------3--1212-1010------0---------|
B|3h5p3-5-----------3h5-3h5--3---0--1313-1212-8h10--------0--|
G|--------4p2p0-----5---5----0----------------------5h7p5----|
D|-------------2p0-------------------------------------------|
A|-----------------------------------------------------------|
E|-----------------------------------------------------------|

e|3---5h7p5-3h5---10h12-12---10--753-----------3---3h5p3-0---7-7-3-5--|
B|--0--------------------------------5p3---3h5---5-----------3-3-3-3--|
G|--------------------------------------------------------------------|
D|--------------------------------------------------------------------|
A|--------------------------------------------------------------------|
E|--------------------------------------------------------------------|

************************************

| /   slide up
| \   slide down
| h   hammer-on
| p   pull-off
| ~   vibrato
| +   harmonic
| x   Mute note
| b   Bend
| pb  Pre-bend
| br  Bend release
| pbr Pre-bend release
| brb Bend release bend

************************************

Tap to rate this tab
# A B C D E F G H I J K L M N O P Q R S T U V W X Y Z