Song name
# A B C D E F G H I J K L M N O P Q R S T U V W X Y Z

Hawksley Workman - You Are Too Beautiful tab

-----------------------------------------------------------------------------
YOU ARE TOO BEAUTIFUL - Hawksley Workman
-----------------------------------------------------------------------------
Tabbed by:Dylan 
E-mail:Vhabyeryemyennahyah_corbe@hotmail.com    

Tuning:Standard


Verse
  ^     ^v ^     ^v 
e|3------3|0------0|0-----00|--3---------------|
B|3------3|1------1|1-----11|--3---------------|
G|0------0|2-----22|0-----00|--0---------------|
D|0-----0-|2-----2-|2-----22|0--------0h2-0----|
A|2-----2-|0-----0-|3-----3-|2----20h2------2-0|
E|3-----3-|--------|--------|3----3------------|
  G        Am       C        G
Pre-Chorus
e|1-------|1-------|3-----3-|
B|3-------|3-------|3-------|
G|2-------|3-------|4-------|
D|0-------|3-------|5-------|
A|--------|1-------|5-------|
E|--------|--------|3-------|
  Dm       Bb       G
Chorus
e|------|0-----1-|0---1h33|----0-----1|0---1h333--3----1h333--3---|0--------|
B|------|1-----1-|0---3333|----1-----1|0---3-333--3----3-333--3---|1--------|
G|------|0-----2-|0---2222|----0-----2|0---2-222--0----2-222--0---|0--------|
D|------|2-----3-|2---0000|----2-----3|2----------0-----------0---|2--------|
A|---2--|3-----3-|2-------|--2-3-----3|2----------2-----------2---|3--------|
E|3-5---|------1-|0-------|35--------1|0----------3-----------3---|---------|
  G      C     F  Em  Dm   G   C     F Em  Dm     G    Dm     G    C
Rhythm-Strings             Rhythm-Piano
e|0---1---0---1---0---0-0-|1---|3---|0---|1-0-|
B|1---1---1---1---1---1-1-|3---|3---|1---|1-0-|
G|0---1---0---1---2---1-2-|2---|0---|0---|2-0-|
D|2---3---2---3---2---2-2-|0---|0---|2---|3-2-|
A|3---3---3---3---0---0-0-|----|2---|3---|3-2-|
E|----1-------1-----------|----|3---|----|1-0-|
  C   Fm  C   Fm  Am  Am7  Dm   G    C    F Em
Lead Solo-Strings
e|3~----4~--6~--4-3~-0-1-3-4~--3~--1-0~--5-7-8-0~--5-7-8-10~--|
B|------------------------------------------------------------|
G|------------------------------------------------------------|
D|------------------------------------------------------------|
A|------------------------------------------------------------|
E|------------------------------------------------------------|
Lead solo-Piano
e|------------------------------------------------------12----|
B|--------10------------------------------10--131313------1313|
G|----9-12--12--109-1012--------------9-12--12----------------|
D|10--------------------10--1012----10------------------------|
A|------------------------------12----------------------------|
E|------------------------------------------------------------|

  G                        Am                  C                    G
I walk through the airport alone I look at my phone cuz it keeps me company
  G                         Am                  C                          G
I called you as I hired the car to ask you how far is it there from you to me.
    Dm                        Bb                 G
and I wrote directions on the back of an old magazine 
                 G           C         F    Em
cuz you are too beautiful to be in bed with me
            G            C             F   Em
you are too beautiful to be in bed with me
   Dm                 G
if you could see the thoughts I see
   Dm                 G                     C
if you could see my thoughts baby you would agree
  G                        Am                     C                           G
I write this song lovingly on an old girlfriend’s guitar that she wants me to return
        G                              Am                      C 
on the twelfth floor you took off your clothes New York in the snow
                       G
and our bodies left to burn
Dm                       Bb                       G
Soft gently rebel at the sun hears the moments of spring

Chorus

Strings

Piano

if you could see the thoughts I see 
if you could see my thoughts
if you could see my thoughts baby you would agree
cuz you are too beautiful to be in bed with mex2
if you could see the thoughts I see 
if you could see my thoughts
if you could see my face
if you could see my face




************************************

| /   slide up
| \   slide down
| h   hammer-on
| p   pull-off
| ~   vibrato
| +   harmonic
| x   Mute note
| b   Bend
| pb  Pre-bend
| br  Bend release
| pbr Pre-bend release
| brb Bend release bend

************************************

Tap to rate this tab
# A B C D E F G H I J K L M N O P Q R S T U V W X Y Z