Song name
# A B C D E F G H I J K L M N O P Q R S T U V W X Y Z

Hawkwind - Motorway City tab

Hawkwind - Motorway City Tab
Standard tuning


-------------------------------------------------------------------------------------------------|
-------------------------------------------------------------------------------------------------|
-------------------------------------------------------------------------------------------------|
-------------------------------------------------------------------------------------------------|
---4--0--0--0--0--0--4--0--0--0--0--0--4--0--0--0--4--0--0--0--0--0--5--0--0--0--0--0--7--0--0--0|
-------------------------------------------------------------------------------------------------|

-------------------------------------------------------------------------------------------------|
-------------------------------------------------------------------------------------------------|
-------------------------------------------------------------------------------------------------|
-------------------------------------------------------------------------------------------------|
---3--0--0--0--0--0--3--0--0--0--0--3--0--0--0--3--0--0--0-----3--0--0--0--0--0--repeat----------|
------------------------------------------------------------3------------------------------------|



----------------------------------------------------------------------------------|
---------------------------10--8----10--8---10--8---10--8-------------------------|
---12bend14---12bend14-----------9--------9-------9-------9---7---5-7-5-----------|
----------------------------------------------------------------------------7--5--|
----------------------------------------------------------------------------------|
----------------------------------------------------------------------------------|

------------------------
------------------------
5--7--10--7--7---7---7--
------------------------
------------------------
------------------------

--------------------------------------------------------------------------------------------------|
-------9--8------------11--10--------------13--12--------------15--14--------------17-------------|
----8-------9-------10--------11--------12--------12--------14--------15-------16-----------------|
-7------------10--9--------------12--11--------------14--13-------------16--15--------------------|
--------------------------------------------------------------------------------------------------|
--------------------------------------------------------------------------------------------------|



--------------------------------------------------------------------------------------------------|
-17----17bend20----17bend20-----17bend20----17bend20----20bend22---20-----------------------------|
-------------------------------------------------------------------19bend21-----------------------|
--------------------------------------------------------------------------------------------------|
--------------------------------------------------------------------------------------------------|
--------------------------------------------------------------------------------------------------|


--------------------------------------------------------------------------------------------------|
--22---20---22--20--22--22bend24--22bend24---22bend24---22bend24---22bend24---24bend22----24bend22|
--------------------------------------------------------------------------------------------------|
--------------------------------------------------------------------------------------------------|
--------------------------------------------------------------------------------------------------|
--------------------------------------------------------------------------------------------------|


------------------------------|
--24bend22---22~sustain-------|
------------------------------|
------------------------------|
------------------------------|
------------------------------|
Tap to rate this tab
# A B C D E F G H I J K L M N O P Q R S T U V W X Y Z