Song name
# A B C D E F G H I J K L M N O P Q R S T U V W X Y Z

Hawkwind - Silver Machine tab

Hawkwind - Silver Machine.

Main rhythm part of song - everything's based around this

e-----------|
b-----------|
g-----------|  x4
d-----------|
a-6-6-8-6---|
E-4-4-4-4---|


e-----------|
b-----------|
g-----------| x4
d-----------|
a-8-8-10-8--|
E-6-6-6 -6--|


e--------------|
b--------------|
g--------------| x4
d--------------|
a-11-11-13-11--|
E-9 -9 -9 - 9--|


e-----------|
b-----------|
g-----------| x4
d-8-8-10-8--|
a-6-6-6 -6--|
E-----------|


Submitted by Paul N
**Swiss**
Tap to rate this tab
# A B C D E F G H I J K L M N O P Q R S T U V W X Y Z