Guitaretab - guitar tabs
Song name
# A B C D E F G H I J K L M N O P Q R S T U V W X Y Z

Hawley Richard - Datura tab

                          **************
                          *** DATURA ***
                          **************
                                by

                            Buckethead

!tuning = tuned down half a step

 intro rythm
(this repeats during the song , with slight variations)

E-------------------------------    -------------------------|
B-------------------------------    ------------3------------|
G----------5--7~~--------------- or ---------5---------------|
D-------------------------------    ------2------------------|
A------7------------------------    ---0---------------------|
E---5---------------------------    -------------------------|

 Lead (starts at 0.14)

E----------------------------------------|
B---------------13~-12~------------------|
G--10/9~/5~~------------12~--------------|
D---------------------------12~-h14------|
A----------------------------------------|
E----------------------------------------|

whammy parts are missing , i don't have a whammy but i can hear the first notes , so i 
it starts like this.

E-------------------------------------|
B-------------------------------------|
G----------12w ----etc..--------------|
D------14w----------------------------|
A-12w---------------------------------|
E-------------------------------------|

lead parts at 1.16   ( the 2 is from the rythm guitar)
[ Tab from: http://www.guitaretab.com/h/hawley-richard/7947.html ]
E---------------------------15-15h17-(17)p15p12/10---------|
B---------------------15h17--------------------------------|
G--------12-14--(2~~)--------------------------------------|
D--12h14---------------------------------------------------|
A----------------------------------------------------------|
E----------------------------------------------------------|

E---15p12h15--15b~~--15b-15-12----------------------------------------|
B------------------------------15br--13h15p13~-----13-12~-13----------|
G-----------------------------------------------14-----------12h14----|
D---------------------------------------------------------------------|
A---------------------------------------------------------------------|
E---------------------------------------------------------------------|

it get's confusing here because there are two guitars at the same time!!

E---------22-19h20------15h17--------------|
B-----20-----------------------------------|
G-17---------------------------------------|
D------------------------------------------|
A------------------------------------------|
E------------------------------------------|
|
|
E------------------------------15~p13p12--------|
B----14b~~r(14)p12/11----------------------12br-|
G-----------------------------------------------|
D-----------------------------------------------|
A-----------------------------------------------|
E-----------------------------------------------|
i can't seem to find the last notes following the (12br) but when i have more time , 
try to find it
and that's all i have for the moment :)
feel free to COMMENT and RATE!
Advertisement will be closed in 10 seconds