Guitaretab - guitar tabs
Song name
# A B C D E F G H I J K L M N O P Q R S T U V W X Y Z

Hawthorne Heights - The Business Of Paper Hearts tab

Enjoy :)
E|-----------------|
B|-----------------|
G|-----------------| x8
D|-0-0-------------|
A|-0-0-7/8/5-5-5-3-|
D|-0-0-------------|

On the fourth time play this
E|-----------------|
B|-----------------|
G|-10--------------|
D|-10--------------|
A|-8---------------|
D|-----------------|
[ Tab from: http://www.guitaretab.com/h/hawthorne-heights/114921.html ]
On the eighth time play this
E|----------------|
B|----------------|
G|-10-12-10-9-5---|
D|----------------|
A|-8--10-8--7-3---|
D|----------------|

E|-----------------------------|
B|-----------------------------|
G|-7-7-7-7-7-7-7-7-7-----------|
D|-7-7-7-7-7-7-7-7-7------3-2--|
A|-5-5-5-5-5-5-5-5-5--3h5------|
     Pm------------------------|
Related for The Business Of Paper Hearts tab
Advertisement will be closed in 10 seconds