Song name
# A B C D E F G H I J K L M N O P Q R S T U V W X Y Z

Hawthorne Heights - Until The Judgment Day tab

This is a request tab from aurigo. Enjoy :)

intro lead/chorus
E|--------------------------------------------------------|
B|--------------------------------------------------------|
G|------------------------------------------5-5-5-5-3-3-3-|
D|-7-9--9--11-11-11-11-11-11-9--9--9--9--9--6-6-6-6-4-4-4-|
A|-9-11-11-12-12-12-12-12-12-12-12-12-12-12---------------|
D|--------------------------------------------------------|

intro/chorus rhythm
E|----------|
B|----------|
G|-4-7------|
D|-4-7-7-5--|
A|-2-5-7-5--|
D|-----7-5--|

verse lead
E|---------------------------------------|
B|--------------------------5-7------5-7-|
G|-----11-------11------7-7-----7-7------|
D|-9-9---12-9-9----12---7-7-----7-7------|
A|-9-9------9-9---------5-5-----4-4------|
D|-9-9------9-9--------------------------|

verse rhythm
E|--------------------------------------|
B|--------------------------------------|
G|-4-4-4-4-4-4-4-4-4-4--7-7-7-7-7-7-7-7-|
D|-4-4-4-4-4-4-4-4-4-4--7-7-7-7-7-7-7-7-|
A|-2-2-2-2-2-2-2-2-2-2--5-5-5-5-4-4-4-4-|
D|--------------------------------------|

Pre chorus
E|---------|
B|---------|
G|---------|
D|-7-7-7-5-|
A|-7-7-7-5-|
D|-7-7-7-5-|

Bridge
E|-----------------------|
B|-----------------------|
G|-----------------------|
D|-5-5-5-5-9-9-8-7-5-5-4-| x4 work out timings
A|-5-5-5-5-9-9-8-7-5-5-4-|
D|-5-5-5-5-9-9-8-7-5-5-4-|
Tap to rate this tab
# A B C D E F G H I J K L M N O P Q R S T U V W X Y Z