Song name
# A B C D E F G H I J K L M N O P Q R S T U V W X Y Z

Hawthorne Heights - This Is Who We Are tab

Help us improve GuitareTab! Take a short survey!
-------------------------------------------------------------------------------
			     This Is Who We Are - Hawthorne Heights
-------------------------------------------------------------------------------
Tabbed by: Bob Louis

Email: Louisvilletuckers@gmail.com

Tuning: Standard ( E A D G B e)

Guitarists
1: Micah (lead guitar)
2: Casey (screamo guy)
3: JT (lead vocals)

Intro
Guitar 1
Distortion
e|-------------------------------------10-10------------10-10----------------|
B|----------------------------------------------12---10----------10----------|
G|-------------------2-2/3---2-2/3------------9----9-----------9-------------|
D|---3-3/4---3-3/4-----------------------------------------------------------|
A|---------------------------------------------------------------------------|
E|---------------------------------------------------------------------------|

e|-------------------------------------10-10-----12--10-----10-10--12-10-----|
B|---------------------------------------------------------------------10-8~-|
G|-------------------2-2/3---2-2/3------------9----------9-------9-----------|
D|---3-3/4---3-3/4-----------------------------------------------------------|
A|---------------------------------------------------------------------------|
E|---------------------------------------------------------------------------|

Guitar 2
Distortion
e|---------------------------------------------------------------------------|
B|---------------------------------------------------------------------------|
G|-----------------------------------5555555577777777------------------------|
D|---3-3/4---3-3/4---3-3/4---3-3/4---5555555577777777------------------------|
A|-----------------------------------3333333355555555------------------------|
E|---------------------------------------------------------------------------|

e|---------------------------------------------------------------------------|
B|---------------------------------------------------------------------------|
G|-----------------------------------5555555577777777~---XX------------------|
D|---3-3/4---3-3/4---3-3/4---3-3/4---5555555577777777~---XX------------------|
A|-----------------------------------5555555577777777~---XX------------------|
E|---------------------------------------------------------------------------|

Guitar 3
Distortion
e|--------------------------------------------------------------------------------------------------|
B|--------------------------------------------------------------------------------------------------|
G|--------------------------5555555577777777--------------------------------------------------------|
D|---22--22--2222--22--22---5555555577777777---2----------------------------------------------------|
A|---22--22--2222--22--22---3333333355555555---2----------------------------------------------------|
E|---00--00--0000--00--00----------------------0-----------------------------Pm   ..  .. 
....  .. -|                      .

e|--------------------------------------------------|
B|--------------------------------------------------|
G|--------------------------5555555577777777~---xx--|
D|---22--22--2222--22--22---5555555577777777~---xx--|
A|---22--22--2222--22--22---3333333355555555~---xx--|
E|---00--00--0000--00--00---------------------------|Pm   ..  ..  ....  ..  ..

Verse 1
Guitar 1
w/ Phaser repeat until prechorus
"Between the future..."
e|---0~----------------------------------------------------------------------|
B|---0~----------------------------------------------------------------------|
G|---2~----------------------------------------------------------------------|
D|---2~----------------------------------------------------------------------|
A|---0~----------------------------------------------------------------------|
E|---0~----------------------------------------------------------------------|

Guitar 2
Clean
I might be wrong on the x8
e|---------------------------------------------------------------------------|
B|---------------------------------------------------------------------------|
G|---4---4---4--5------------------------------------------------------------|
D|---4---4---4--5---7-7------------------------------------------------------|
A|---2---2---2--3---7-7------------------------------------------------------|
E|------------------5-5-----x8-----------------------------------------------|
Guitar 3 doesnt play in verse 1

Prechorus
Guitar 1
Clean or Phaser
"I always knew..."
e|---------------------------------------------------------------------------|
B|---------------------------------------------------------------------------|
G|--------5~-----------------------------------------------------------------|
D|---2~---5~-----------------------------------------------------------------|
A|---2~---3~-----------------------------------------------------------------|
E|---0~----------------------------------------------------------------------|

Chorus
Guitar 1
Distortion
"I know it seems like we're never coming back..."
e|-----------------------------12-10-----------------------------------------|
B|-----------------------------------12-11-----------------------------------|
G|---------------2/3---2/3-----------------10~-------------------------------|
D|---3/4---3/4---------------------------------------------------------------|
A|---------------------------------------------------------------------------|
E|---------------------------------------------------x2----------------------|


Guitar 2 + 3
Distortion
e|---------------------------------------------------------------------------|
B|---------------------------------------------------------------------------|
G|------------------------5555555577777777-----------------------------------|
D|---2222222222222222-----5555555577777777-----------------------------------|
A|---2222222222222222-----3333333355555555-----------------------------------|
E|---0000000000000000-------------------------x2-----------------------------|

Verse 2
Guitar 1
Phaser
Repeat until prechorus
"Between the sadness and the smile..."
e|---0~----------------------------------------------------------------------|
B|---0~----------------------------------------------------------------------|
G|---2~----------------------------------------------------------------------|
D|---2~----------------------------------------------------------------------|
A|---0~----------------------------------------------------------------------|
E|---0~----------------------------------------------------------------------|

Guitar 2 + 3
Distortion
e|-------------------------------------------------------------------------------|
B|-------------------------------------------------------------------------------|
G|---5-5555555555-5-5555555555---------------------------------------------------|
D|---5-5555555555-5-5555555555-2-2222222222-2-222222222--------------------------|
A|---3-3333333333-3-3333333333-2-2222222222-2-222222222--------------------------|
E|-----------------------------0-0000000000-0-000000000---x2-----------------Pm--|     
  ..........   ..........   .........

Interlude 1
Guitar 1
Phaser
e|---------------------------------------------------------------------------|
B|---10--------------10-----------------------10-----------------------------|
G|------11--------------11-----------------11--------------------------------|
D|---------12--------------12-----------12-----------------------------------|
A|------------10--------------10-----10--------------------------------------|
E|---------------------------------------------------------------------------|

Bridge
Guitar 1
Slight Phaser it sounds like
"With all the flowers..."
e|---------------------------------------------------------------------------|
B|---------------------------------------------------------------------------|
G|-----7-----7-----7---7-----7-----7---7-----7-----7---7-----7-----7---------|
D|-------7-----7---------7-----7---------7-----7---------7-----7-------------|
A|---5-----5-----5---5-----5-----5---5-----5-----5---5-----5-----5----x4-----|
E|---------------------------------------------------------------------------|

Guitar 2 + 3
Distortion
2nd time dont palm mute last power chord, and only play it once
3rd and 4th time dont palm mute, and play the power cord once
e|------------------------------------------------------------------|
B|------------------------------------------------------------------|
G|-------------------------------55555-55-55---55555----7777--------|
D|---22222-22-22---22222-22-22---55555-55-55---55555-77-7777--------|
A|---22222-22-22---22222-22-22---33333-33-33---33333-77-5555--------|
E|---00000-00-00---00000-00-00-----------------------55---------x4--|Pm   ..... .. ..   
.. ..   ..... .. ..   ..... .. ....

Interlude 2
Guitar 1
Distortion
e|---------------------------------------------------------------------------|
B|---------------------------------------------------------------------------|
G|-------------------2-2/3---2-2/3-------------------2-2/3---2-2/3-----------|
D|---3-3/4---3-3/4-------------------3-3/4---3-3/4---------------------------|
A|---------------------------------------------------------------------------|
E|---------------------------------------------------------------------------|

Guitar 2
Distortion
e|---------------------------------------------------------------------------|
B|---------------------------------------------------------------------------|
G|---------------------------------------------------------------------------|
D|---3-3/4---3-3/4---3-3/4---3-3/4---3-3/4---3-3/4---3-3/4---3-3/4-----------|
A|---------------------------------------------------------------------------|
E|---------------------------------------------------------------------------|

Guitar 3
Distortion
e|--------------------------------------|
B|--------------------------------------|
G|--------------------------------------|
D|---22-22-2222-22--2255-55-5577-77-77--|
A|---22-22-2222-22--2255-55-5577-77-77--|
E|---00-00-0000-00--0033-33-3355-55-55--|Pm   .. .. .... ..  .... .. .... .. ..

Outro
Guitar 1
Distortion
e|---------------------------------------------------------------------------|
B|---------------------------------------------------------------------------|
G|---------------------------------------------------------------------------|
D|-----------3-3~------------------------------------------------------------|
A|---3-3/4-------------------------------------------------------------------|
E|---------------------------------------------------------------------------|

Guitar 2
Distortion
e|---------------------------------------------------------------------------|
B|---------------------------------------------------------------------------|
G|---------------------------------------------------------------------------|
D|-----------3-3~------------------------------------------------------------|
A|---3-3/4-------------------------------------------------------------------|
E|---------------------------------------------------------------------------|

Guitar 3
Distortion
e|------------|
B|------------|
G|------------|
D|---22---22--|
A|---22---22--|
E|---00---00--|Pm   ..   ..

Order:

Intro
Verse 1
Prechorus
Chorus
Verse 2
Prechorus
Chours
Interlude 1
Bridge
Interlude 2
Chorus
Outro

x=mute note
~=ring out
.=palm mute
Related for This Is Who We Are tab