Guitaretab - guitar tabs
Song name
# A B C D E F G H I J K L M N O P Q R S T U V W X Y Z

Hawthorne Heights - Four Become One tab

That's the way I play it!! Hope you enjoy my first tab!!

INTRO

"And you will live on..."
e|---------------------------------------------------------------|
B|---------------------------------------------------------------|
G|---------------------------------------------------------------| 2x
D|--------4(7x)---2(7x)---4(4x)---2(4x)--------------------------|
A|2(7x)---5(7x)---0(7x)---2(4x)---0(4x)--------------------------|
E|3(7x)----------------------------------------------------------|

"And as we pull ourselves together..."
e|---------------------------------------------------------------|
B|---------------------------------------------------------------|
G|---------------------------------------------------------------| 2x
D|5(7x)---4(7x)---2(7x)---9(4x)----7(4x)-------------------------|
A|7(7x)---5(7x)---3(7x)---10(4x)---9(4x)-------------------------|
E|---------------------------------------------------------------|

"...just like it was from the start"
e|----------------|
B|--------3-------|
G|--------0-------|
D|--------2-------|
A|--------3-------|
E|----------------|

CHORUS
[ Tab from: http://www.guitaretab.com/h/hawthorne-heights/178683.html ]
G      D            Em
  When five becomes four
      C            G
  and four becomes one
       D                Em   
  Your not just passing on
       C                  D
  your passing on all the fun we had,
      Em
  you made us laugh
     C
  We only cried but once
      D   
  You made us laugh,
    Em
  infront of crowds
        C
  on display for everyone

VERSE (play like intro)   
  
The time has come now
and we must figure out,
Driving north or going south
growing up but falling down
but as we pull ourselves together
We cant help but be torn apart
and we will always have eachother
Just like it was from the start

CHORUS

SOLO

  Em                   C           Em                  C
e|-------------------------------|------------------------------------|
B|--8--7-----8--7----------------|--8--7-----8--7--------------7------|
G|--------7--------7--------7----|--------7--------7--------7---------|
D|---------------------7h9-----5-|--------------------7h9-------------|
A|-------------------------------|------------------------------------|
E|-------------------------------|------------------------------------|


e|---------------------------------------------------------------------|
B|---------------------------------------------------------------------|
G|----12---------14--------12---------7--------------------------------|
D|----x--(13x)---x--(4x)---x--(7x)----7--------------------------------|
A|----10---------12--------10---------5--------------------------------|
E|---------------------------------------------------------------------|

CHORUS


(Play like intro)

And the time has come now
and we must figure out
Driving north or going south
growing up but falling down 

___________________________________________________________

Thanks!!
Related for Four Become One tab
Advertisement will be closed in 10 seconds