Song name
# A B C D E F G H I J K L M N O P Q R S T U V W X Y Z

Hawthorne Heights - Come Back Home tab

e-------------------------------------------|
b-------------------------------------------|
g-6---6----4---4-------6---6----4---4-------|
d-6---6----4---4-------6---6----4---4-------| x4
a----------------4-4------------------4/64--|
e-------------------------------------------|

e--------------------12*------------------|
b-----------------------------------------|
g---6-6---4-4-----------------------------|
d---6-6---4-4-----------------------------| x1
a---4-4---2-2--4/6------------------------|
e-----------------------------------------|
Tap to rate this tab
# A B C D E F G H I J K L M N O P Q R S T U V W X Y Z