Song name
# A B C D E F G H I J K L M N O P Q R S T U V W X Y Z

Hawthorne Heights - The Transition tab


Artist: Hawthorne Heights
Song: The Transition
Tabbed By: Sid Ricard

I was reading Version 2 of this tab and I noticed that
some parts were off by a couple of notes or there were
easier ways to play it, so I corrected them and posted
it here for everyone. I tried my best to get as close
as i could to the correct tabs. Please Rate. Thanks :)


Tuning   = Standard (EADGBE)
Guitar 1 = Rhythm
Guitar 2 = Lead



~~~ Intro ~~~

|Guitar 1|

e|--------------------------------------|
B|--------------------------------------|
G|-------------9-6~-xxx-4~-xx-6~-xxx-2~-|
D|-------------9-6~-xxx-4~-xx-6~-xxx-2~-|
A|-------------7-4~-xxx-2~-xx-4~-xxx-0~-|
E|-5-4-0-7-5-0--------------------------|


|Guitar 2|

e|-7p0---------7p0---------|     |-2-2-2-2-4~---------------|
B|-----5---5-------5-4~----|     |------------5-4-0---5-4-0-|
G|-------------------------|(x3) |--------------------------|
D|-------------------------|     |--------------------------|
A|-------------------------|     |--------------------------|
E|-------------------------|     |--------------------------|


~~~ Verse ~~~

|Guitar 1|
  "So Here We Are..."      "Hey, Rise And Shine..."
e|--------------------|   |-----------------------------------------------------------------------|
B|--------------------|   |-----------------------------------------------------------------------|
G|-6~--4~--6~--4-2~---|   |-6-6------2-2------6-6------4-4------6-6------2-2------6-6------4------|
D|-6~--4~--6~--4-2~---|   |-6-6(x14)-2-2(x14)-6-6(x14)-4-4(x14)-6-6(x14)-2-2(x14)-6-6(x14)-4(x16)-|
A|-4~--2~--4~--2-0~---|   |-4-4------0-0------4-4------2-2------4-4------0-0------4-4------2------|
E|--------------------|   |-----------------------------------------------------------------------|
                              .        .        .        .        .        .        .

|Guitar 2|
  "So Here We Are..."      "Hey, Rise And Shine..."
e|-----------------|       |---------------------------------|     |--------|
B|-5-4-0---5-4-0---|       |---------5-5-5-5---------4-4-4-4-|     |--------|
G|-----------------|(x2)   |-4-4-4-4---------4-4-4-4---------|(x7) |-4------|
D|-----------------|       |---------------------------------|     |-4(x16)-|
A|-----------------|       |---------------------------------|     |-2------|
E|-----------------|       |---------------------------------|     |--------|
                             . . . . . . . . . . . . . . . .

~~~ Chorus ~~~

|Guitar 1|
  "As Days Go By.."   "I'll Wait For You..."   "As Days Go By.."   "I Won't Let Go"
e|------------|      |---------------------|  |------------|      |-------------------|
B|------------|      |---------------------|  |------------|      |-------------------|
G|------------|      |-6-xx--4-xx-2---xxxx-|  |------------|      |-6-xx--4-xx-2---xx-|
D|-4~--6---7~-|      |-6-xx--4-xx-2---xxxx-|  |-4~--6---7~-|      |-6-xx--4-xx-2---xx-|
A|-4~--6---7~-|      |-4-xx--2-xx-0---xxxx-|  |-4~--6---7~-|      |-4-xx--2-xx-0---xx-|
E|-2~--4---5~-|      |---------------------|  |-2~--4---5~-|      |-------------------|

|Guitar 2|
  "As Days Go By..."                               "I'll Wait For You"
e|--------------------------------------------0~-||---------------------|
B|-17~-------17p16-14---16p14-12---14p12-7---17~-||---------------------|
G|------13~--------------------------------------||-6-xx--4-xx-2---xxxx-|
D|-----------------------------------------------||-6-xx--4-xx-2---xxxx-|
A|-----------------------------------------------||-4-xx--2-xx-0---xxxx-|
E|-----------------------------------------------||---------------------|

 "As Days Go By..."                               "I Won't Let Go"
e|-------------------------------------------0~-||-----------------|
B|-17~-------17p16-14---16p14-12---14p12-7---5~-||-13b---15b---16b-|
G|------13~-------------------------------------||-----------------|
D|----------------------------------------------||-----------------|
A|----------------------------------------------||-----------------|
E|----------------------------------------------||-----------------|


~~~ Post-Chorus ~~~

|Guitar 1|
  "These Things Remain..."
e|-----------------------------------------------|
B|-----------------------------------------------|
G|-6-6---6-6---6-6---6-6---2-2---2-2---2-2---2-2-|
D|-6-6---6-6---6-6---6-6---2-2---2-2---2-2---2-2-|
A|-4-4---4-4---4-4---4-4---0-0---0-0---0-0---0-0-|
E|-----------------------------------------------|

|Guitar 2|
  "These Things Remain.."
e|-----------------------------------7p0-|     |-----------------------------------|
B|-4p0-4p0---4h5p4p0---4p0-4p0---4h5-----|     |-4p0-4p0---4h5p4p0---4p0-4p0---4p0-|
G|---------------------------------------|(x2) |-----------------------------------|
D|---------------------------------------|     |-----------------------------------|
A|---------------------------------------|     |-----------------------------------|
E|---------------------------------------|     |-----------------------------------|


~~~ Break 1 ~~~

|Guitar 1|
 "Please Don't Ever..." (Comes In With 2nd Part Of Lead)
e|----------|     |------------|     |-----------------|
B|----------|     |------------|     |-----------------|
G|-6-6------|(x2) |-4/6-6------|(x2) |-2-2------4------|
D|-6-6(x14)-|     |-4/6-6(x14)-|     |-2-2(x14)-4(x16)-|
A|-4-4------|     |-2/4-4------|     |-0-0------2------|
E|----------|     |------------|     |-----------------|
     .                  .                .

|Guitar 2|
  "Please Don't ever..."           
e|-7p0-----7p0-----7p0-----7p0-----7p0-----7p0-----7p0-----7p0-----|
B|-----4p0-----4p0-----4p0-----4p0-----4p0-----4p0-----4p0-----4p0-|
G|-----------------------------------------------------------------|
D|-----------------------------------------------------------------|
A|-----------------------------------------------------------------|
E|-----------------------------------------------------------------|

e|---4~p0-----4p0-----4p0-----4p0---4~p0-----4p0-----4p0-----4p0---------|
B|-7------7p0-----7p0-----7p0-----7------7p0-----7p0-----7p0-----7p0-4p0-|
G|-----------------------------------------------------------------------|
D|-----------------------------------------------------------------------|
A|-----------------------------------------------------------------------|
E|-----------------------------------------------------------------------|

e|-7p0-----7p0-----7p0-----7------7p0-----7p0-----7p0---------|
B|-----4p0-----4p0-----4p0---4~p0-----4p0-----4p0-----4p0-4p0-|
G|------------------------------------------------------------|
D|------------------------------------------------------------|
A|------------------------------------------------------------|
E|------------------------------------------------------------|

e|-2p0-----2p0-----2p0-----2p0-----4p0-----4p0-----4p0-----4p0-----|
B|-----4p0-----4p0-----4p0-----4p0-----7p0-----7p0-----7p0-----7p0-|
G|-----------------------------------------------------------------|
D|-----------------------------------------------------------------|
A|-----------------------------------------------------------------|
E|-----------------------------------------------------------------|


~~~ Chorus ~~~

|Guitar 1|
  "As Days Go By.."   "I'll Wait For You..."   "As Days Go By.."   "I Won't Let Go"
e|------------|      |---------------------|  |------------|      |-------------------|
B|------------|      |---------------------|  |------------|      |-------------------|
G|------------|      |-6-xx--4-xx-2---xxxx-|  |------------|      |-6-xx--4-xx-2---xx-|
D|-4~--6---7~-|      |-6-xx--4-xx-2---xxxx-|  |-4~--6---7~-|      |-6-xx--4-xx-2---xx-|
A|-4~--6---7~-|      |-4-xx--2-xx-0---xxxx-|  |-4~--6---7~-|      |-4-xx--2-xx-0---xx-|
E|-2~--4---5~-|      |---------------------|  |-2~--4---5~-|      |-------------------|

|Guitar 2|
  "As Days Go By..."                               "I'll Wait For You"
e|--------------------------------------------0~-||---------------------|
B|-17~-------17p16-14---16p14-12---14p12-7---17~-||---------------------|
G|------13~--------------------------------------||-6-xx--4-xx-2---xxxx-|
D|-----------------------------------------------||-6-xx--4-xx-2---xxxx-|
A|-----------------------------------------------||-4-xx--2-xx-0---xxxx-|
E|-----------------------------------------------||---------------------|

 "As Days Go By..."                               "I Won't Let Go"
e|-------------------------------------------0~-||-----------------|
B|-17~-------17p16-14---16p14-12---14p12-7---5~-||-13b---15b---16b-|
G|------13~-------------------------------------||-----------------|
D|----------------------------------------------||-----------------|
A|----------------------------------------------||-----------------|
E|----------------------------------------------||-----------------|


~~~ Post-Chorus ~~~

|Guitar 1|
  "These Things Remain..."
e|-----------------------------------------------|
B|-----------------------------------------------|
G|-6-6---6-6---6-6---6-6---2-2---2-2---2-2---2-2-|
D|-6-6---6-6---6-6---6-6---2-2---2-2---2-2---2-2-|
A|-4-4---4-4---4-4---4-4---0-0---0-0---0-0---0-0-|
E|-----------------------------------------------|

|Guitar 2|
  "These Things Remain..."
e|-----------------------------------7p0-----------------------------------|
B|-4p0-4p0---4h5p4p0---4p0-4p0---4h5-----4p0-4p0---4h5p4p0---4p0-4p0---4p0-|
G|-------------------------------------------------------------------------|
D|-------------------------------------------------------------------------|
A|-------------------------------------------------------------------------|
E|-------------------------------------------------------------------------|

~~~ Break 2 ~~~

|Guitar 1|
  "I Hope You Never..."
e|-------------------|
B|-------------------|
G|-6~---2~---6~---2~-|
D|-6~---2~---6~---2~-|
A|-4~---0~---4~---0~-|
E|-------------------|

|Guitar 2|
  "I Hope You Never..."           
e|-7p0-----7p0-----7p0-----7p0-----7p0-----7p0-----7p0-----7p0-----7p0-|
B|-----4p0-----4p0-----4p0-----4p0-----4p0-----4p0-----4p0-----4p0-----|
G|---------------------------------------------------------------------|
D|---------------------------------------------------------------------|
A|---------------------------------------------------------------------|
E|---------------------------------------------------------------------|

e|-4p0-----4p0-----4p0-----4p0-----4p0-----4p0-----4p0-----4p0---------|
B|-----7p0-----7p0-----7p0-----7p0-----7p0-----7p0-----7p0-----7p0-4p0-|
G|---------------------------------------------------------------------|
D|---------------------------------------------------------------------|
A|---------------------------------------------------------------------|
E|---------------------------------------------------------------------|

e|-7p0-----7p0-----7p0-----7p0-----7p0-----7p0-----7p0-----7p0-|
B|-----4p0-----4p0-----4p0-----4p0-----4p0-----4p0-----4p0-----|
G|-------------------------------------------------------------|
D|-------------------------------------------------------------|
A|-------------------------------------------------------------|
E|-------------------------------------------------------------|

e|-4p0-----4p0-----4p0-----4p0-----4p0-----4p0-----4p0-----4p0-----|
B|-----7p0-----7p0-----7p0-----7p0-----7p0-----7p0-----7p0-----7p0-|
G|-----------------------------------------------------------------|
D|-----------------------------------------------------------------|
A|-----------------------------------------------------------------|
E|-----------------------------------------------------------------|


~~~ Break 3 ~~~

|Guitar 1|
  "Shine On..."
e|----------------------------------------------------------------|
B|----------------------------------------------------------------|
G|-6-6--6-6-6-6-6--6-6--6-6-6-6-6--2-2--2-2-2-2-2--2-2--2-2-2-2-2-|
D|-6-6--6-6-6-6-6--6-6--6-6-6-6-6--2-2--2-2-2-2-2--2-2--2-2-2-2-2-|(x2)
A|-4-4--4-4-4-4-4--4-4--4-4-4-4-4--0-0--0-0-0-0-0--0-0--0-0-0-0-0-|
E|----------------------------------------------------------------|
   . .  . . . . .  . .  . . . . .  . .  . . . . .  . .  . . . . . 

e|----------------------------------------------------------------|
B|----------------------------------------------------------------|
G|-6-6--6-6-6-6-6--6-6--6-6-6-6-6--2-2--2-2-2-2-2--4-4--4-4-4-4-4-|
D|-6-6--6-6-6-6-6--6-6--6-6-6-6-6--2-2--2-2-2-2-2--4-4--4-4-4-4-4-|
A|-4-4--4-4-4-4-4--4-4--4-4-4-4-4--0-0--0-0-0-0-0--0-0--0-0-0-0-0-|
E|----------------------------------------------------------------|
   . .  . . . . .  . .  . . . . .  . .  . . . . .  . .  . . . . . 

|Guitar 2|
  "Shine On..." (Comes In On Rythm Guitar's 3rd Time)
e|-0~---0~-0~---------------0~----------------|
B|-4b---4b-4~---5-5-5-5-5-5-2~---7-7-7-5-4-0~-|
G|--------------------------------------------|
D|--------------------------------------------|
A|--------------------------------------------|
E|--------------------------------------------|


~~~ Chorus ~~~

|Guitar 1|
  "As Days Go By.."  "I'll Wait For You..."
e|------------|      |---------------------|
B|------------|      |---------------------|
G|------------|      |-6-xx--4-xx-2---xxxx-|
D|-4~--6---7~-|      |-6-xx--4-xx-2---xxxx-|
A|-4~--6---7~-|      |-4-xx--2-xx-0---xxxx-|
E|-2~--4---5~-|      |---------------------|

|Guitar 2|
  "As Days Go By..."                              "I'll Wait For You"
e|-------------------------------------------0~-||---------------------|
B|-17~-------17p16-14---16p14-12---14p12-7---5~-||---------------------|
G|------13~-------------------------------------||-6-xx--4-xx-2---xxxx-|
D|----------------------------------------------||-6-xx--4-xx-2---xxxx-|
A|----------------------------------------------||-4-xx--2-xx-0---xxxx-|
E|----------------------------------------------||---------------------|



~~~ End ~~~

|Guitar 1|
  "As Days Go By..."
e|-----------------------|
B|-----------------------|
G|-------------2-2---4-4-| (Play Till Fade)
D|-4-4---6-6---2-2---4-4-|
A|-4-4---6-6---0-0---2-2-|
E|-2-2---4-4-------------|

|Guitar 2| (Comes in after Guitar 1 plays once)
  "Until I Die..."                 "As Days Go By..."
e|--------4p0~------------------| |--------4p0~---4p0~-----------|
B|-5p0~----------5p0~---4h5p4h5-| |-5p0~-----------------4h5p4h5-|
G|------------------------------| |------------------------------| (Play Till Fade)
D|------------------------------| |------------------------------|
A|------------------------------| |------------------------------|
E|------------------------------| |------------------------------|


Question or Comments?

zooyork023@yahoo.com

Thanks :)


Tap to rate this tab
 
# A B C D E F G H I J K L M N O P Q R S T U V W X Y Z