Song name
# A B C D E F G H I J K L M N O P Q R S T U V W X Y Z

Hawthorne Heights - Somewhere In Between tab

    this is my first tab so go easy. drop d.

intro/verse rythmn
d--7---9----7---5---|
a--7---9x3--7---5x3-|
d--7---9----7---5---|

pre-chorus- palmute. its the same for the chorus just don't palm mute.
d-5-------7----9-------------2-|
a-5x7-----7x7--9x7-----------2-| play this chord whwn he says " i need you now
d-5-------7----9-------------2-|  then i ever did.

solo-
e----------------------------------------------------------------------------|
b-15-15-14-15-17-17-15/19-17-19-20-19-17-20-20-20-20-19-19-19-20-19-19-17-17-|
g----------------------------------------------------------------------------|
d----------------------------------------------------------------------------|
a----------------------------------------------------------------------------|
d----------------------------------------------------------------------------|
Tap to rate this tab
 
# A B C D E F G H I J K L M N O P Q R S T U V W X Y Z