Song name
# A B C D E F G H I J K L M N O P Q R S T U V W X Y Z

Hawthorne Heights - Until The Judgement Day tab

Here’s the right tab I think…   This is my first one, but it works.. try it!


intro 2x
E|------------------------------5--5--5--5--5--5--5--5--|
B|------------------------------7--5--5--5--5--5--5--5--|
G|-7-9--11-11-11-11-11-11-11-11-7--7--7--7--7--7--7--7--|
D|-9-11-11-12-12-12-12-12-12-12-7--7--7--7--7--7--7--7--|
A|------9--9--9--9--9--9--9--9--5--5--5--5--5--5--5--5--|
D|------9--9--9--9--9--9--9--9--------------------------|

E|------------------------------------------------------|
B|------------------------------------------------------|
G|------9--9--9--9--9--9--9--9--7--7--7--7--7--7--7--7--|
D|------11-11-11-11-11-11-11-11-9--9--9--9--9--9--9--9--|
A|------7--7--7--7--7--7--7--7--5--5--5--5--5--5--5--5--|
D|------7--7--7--7--7--7--7--7--5--5--5--5--5--5--5--5--|



verse lead 4x
E|---------------------------------------|
B|--------------------------5-7------5-7-|
G|-----7--------7-------7-7-6~7-7-7--6~7-|
D|-9-9---9--9-9---9-----7-7-----7-7------|
A|-9-9------9-9---------5-5-----4-4------|
D|-9-9------9-9--------------------------|


Pre chorus
E|--------------------------------------------------|
B|---------------------------------7-7-7-7-7-7-7-7--|
G|-7-----7-----7---7-----7-----7---7-7-7-7-7-7-7-7--|
D|---9-9---9-9---9---9-9---9-9---9------------------|
A|--------------------------------------------------|
D|--------------------------------------------------|

Chorus (same as intro) 2x
E|------------------------------5--5--5--5--5--5--5--5--|
B|------------------------------7--5--5--5--5--5--5--5--|
G|-7-9--11-11-11-11-11-11-11-11-7--7--7--7--7--7--7--7--|
D|-9-11-11-12-12-12-12-12-12-12-7--7--7--7--7--7--7--7--|
A|------9--9--9--9--9--9--9--9--5--5--5--5--5--5--5--5--|
D|------9--9--9--9--9--9--9--9--------------------------|

E|------------------------------------------------------|
B|------------------------------------------------------|
G|------9--9--9--9--9--9--9--9--7--7--7--7--7--7--7--7--|
D|------11-11-11-11-11-11-11-11-9--9--9--9--9--9--9--9--|
A|------7--7--7--7--7--7--7--7--5--5--5--5--5--5--5--5--|
D|------7--7--7--7--7--7--7--7--5--5--5--5--5--5--5--5--|


Verse (play it like the first one, but now palm muted… just listen to it)

Pre Chorus

Chorus 2x


Bridge (first piano, then this)
E|-------------------|
B|-------------------|
G|-------------------|
D|--5-5-5-5-5-5-5-5--| 
A|--5-5-5-5-5-5-5-5--| 
D|--5-5-5-5-5-5-5-5--| 
   >>>>>>>pm<<<<<<<

E|--------------------------------------------|
B|--------------------------------------------|
G|--------------------------------------------|    4x
D|--9-8-7-5-2-5-5-5-5-5-5-5-5-4-4-4-4-7-7-7-7-| 
A|--9-9-7-5-2-5-5-5-5-5-5-5-5-4-4-4-4-7-7-7-7-| 
D|--9-8-7-5-2-5-5-5-5-5-5-5-5-4-4-4-4-7-7-7-7-| 


Chorus 2x


End
E|------|
B|------|
G|-7-9--|
D|-9-11-|
A|------|
D|------|


Tap to rate this tab
# A B C D E F G H I J K L M N O P Q R S T U V W X Y Z