Song name
# A B C D E F G H I J K L M N O P Q R S T U V W X Y Z

Hawthorne Heights - Four Become One tab

Intro:"And you will live on..."
E|-------------------------------------------------------------|
B|-------------------------------------------------------------|
G|-------------------------------------------------------------| x2
D|------------------4-----4-----4---2-----2-----2---4444-2222--|
A|--2-----2-----2---5-5-5-5-5-5-5-5-0-0-0-0-0-0-0-0-2222-0000--|
E|--3-3-3-3-3-3-3-3--------------------------------------------| 

  "And as we pull ourselves together..."
E|---------------------------------------------------------------|
B|---------------------------------------------------------------|
G|---------------------------------------------------------------|
D|-5-----5-----5---4-----4-----4---2-----2-----2----9-9-9-9-7777-|
A|-7-7-7-7-7-7-7-7-5-5-5-5-5-5-5-5-3-3-3-3-3-3-3-3-10101010-9999-|
E|---------------------------------------------------------------|

E|---------------------------------------------------------------|
B|-------------------------------------------------3~------------|
G|-------------------------------------------------0~------------|
D|-5-----5-----5---4-----4-----4---2-----2-----2---2~------------|
A|-7-7-7-7-7-7-7-7-5-5-5-5-5-5-5-5-3-3-3-3-3-3-3-3-3~------------|
E|---------------------------------------------------------------|

Chorus: "When five becomes four..." Figure out the strumming.
E|-----------------|
B|-----------------|
G|-----7-------5---| x2
D|-5---7---2---5---|
A|-5---5---2---3---|
E|-3-------0-------|

E|------------------|
B|------------------|
G|-7-------5--------|
D|-7---2---5---5~---|
A|-5---2---3---5~---|
E|-----0-------3~---|

Verse: "And the time has come now..."
E|-------------------------------------------------------------|
B|-------------------------------------------------------------|
G|-------------------------------------------------------------| x2
D|------------------4-----4-----4---2-----2-----2---4444-2222--|
A|--2-----2-----2---5-5-5-5-5-5-5-5-0-0-0-0-0-0-0-0-2222-0000--|
E|--3-3-3-3-3-3-3-3--------------------------------------------|

E|---------------------------------------------------------------|
B|---------------------------------------------------------------|
G|---------------------------------------------------------------|
D|-5-----5-----5---4-----4-----4---2-----2-----2----9-9-9-9-7777-|
A|-7-7-7-7-7-7-7-7-5-5-5-5-5-5-5-5-3-3-3-3-3-3-3-3-10101010-9999-|
E|---------------------------------------------------------------|

E|---------------------------------------------------------------|
B|-------------------------------------------------3~------------|
G|-------------------------------------------------0~------------|
D|-5-----5-----5---4-----4-----4---2-----2-----2---2~------------|
A|-7-7-7-7-7-7-7-7-5-5-5-5-5-5-5-5-3-3-3-3-3-3-3-3-3~------------|
E|---------------------------------------------------------------|

Chorus: " When five becomes four..." Figure out the strumming.
E|-----------------|
B|-----------------|
G|-----7-------5---| x2
D|-5---7---2---5---|
A|-5---5---2---3---|
E|-3-------0-------|

E|------------------|
B|------------------|
G|-7-------5--------|
D|-7---2---5---5~---|
A|-5---2---3---5~---|
E|-----0-------3~---|

Solo:
E|-----------------------------------|
B|-8-7--8-7--------8-7--8-7-----7~---|
G|----7----7---7------7----7---7-----|
D|----------7h9--5----------7h9------|
A|-----------------------------------|
E|-----------------------------------|

E|------------------|
B|------------------|
G|-12--14--12---5~--|
D|--x---x---x---5~--|
A|-10--12--10---7~--|
E|------------------|

Chorus:
E|-----------------|
B|-----------------|
G|------7-------5--| x2
D|--5---7---2---5--|
A|--5---5---2---3--|
E|--3-------0------|

E|--------------|
B|--------------|
G|--7-------5---| x2
D|--7---2---5---| *Second time end on D|-5~-|
A|--5---2---3---|                     A|-5~-|
E|------0-------|                     E|-3~-|

Outro:
E|-------------------------------------------------------------|
B|-------------------------------------------------------------|
G|-------------------------------------------------------------| x2
D|------------------4-----4-----4---2-----2-----2---4444-2222--|
A|--2-----2-----2---5-5-5-5-5-5-5-5-0-0-0-0-0-0-0-0-2222-0000--|
E|--3-3-3-3-3-3-3-3--------------------------------------------|

Second time end on D|-5~-|
                   A|-5~-|
                   E|-3~-|
Tap to rate this tab
 
# A B C D E F G H I J K L M N O P Q R S T U V W X Y Z