Song name
# A B C D E F G H I J K L M N O P Q R S T U V W X Y Z

Hawthorne Heights - Bring You Back tab

so this wasn't up yet so i had my guitar teacher tabbed it for me.
Intro:
Guitar 1

    16    x16     x16
e|--0------0------0---------------------------------------------------------|
b|--5------4------2---0---x8---0---x8---------------------------------------|
g|--------------------4--------2--------------------------------------------|
d|--------------------------------------------------------------------------|
a|--------------------------------------------------------------------------|
e|--------------------------------------------------------------------------|

pre chorus:


guitar 1      x2
e|---0--0--0---------0--0--0------------------------------------------------|
b|---4--5--5---------4--5--5------------------------------------------------|
g|--------------------------------------------------------------------------|
d|-------------------------------2~~--2~~--2~~--2~~-------------------------|
a|-------------------------------0~~--0~~--0~~--0~~-------------------------|
E|--------------------------------------------------------------------------|


guitar 2
e|--------------------------------------------------------------------------|
b|--------------------------------------------------------------------------|
g|--------------------------------------------------------------------------|
d|---4--4----6-6---2~~--2~~--2~~--2~~---------------------------------------|
a|---2--2----4-4---0~~--0~~--0~~--0~~---------------------------------------|
e|--------------------------------------------------------------------------|

chorus:


guitar 1  x3
e|---0-0-0--7~--0~-----0-0-0--7~--0-0-0--------------------------------------|
b|---4-5-5--5~--5~-----4-5-5--5~--5-5-5--------------------------------------|
g|---------------------------------------------------------------------------|
d|---------------------------------------------------------------------------|
a|---------------------------------------------------------------------------|
e|---------------------------------------------------------------------------|

guitar 2
e|--------------------------------------------------------------------------|
b|--------------------------------------------------------------------------|
g|--------x8----x4----x4----x4----------------------------------------------|
d|--x8----2~~---6~~---4~~---2~~---------------------------------------------|
a|--2~~---0~~---4~~---2~~---0~~---------------------------------------------|
e|--0~~---------------------------------------------------------------------|


2ed verse:

guitar 1
16    x16     x16
e|--0------0------0---------------------------------------------------------|
b|--5------4------2---0---x8---0---x8---------------------------------------|
g|--------------------4--------2--------------------------------------------|
d|--------------------------------------------------------------------------|
a|--------------------------------------------------------------------------|
e|--------------------------------------------------------------------------|

guitar 2 x2 the second time through it 3 instead of 2
e|--------------------------------------------------------------------------|
b|--------------------------------------------------------------------------|
g|--------------------------------------------------------------------------|
d|--9-9---9-9---4-4---4-4---------------------------------------------------|
a|--7-7---6-6---6-6---2-2---------------------------------------------------|
e|--------------------------------------------------------------------------|

BRIDGE: it's clean than the 2ed time though it's distortion

e|--------------------------------------------------------------------------|
b|--------------------------------------------------------------------------|
g|--------x8----x4----x4----x4----------------------------------------------|
d|--x8----2~~---6~~---4~~---2~~---------------------------------------------|
a|--2~~---0~~---4~~---2~~---0~~---------------------------------------------|
e|--0~~---------------------------------------------------------------------|


last chorus:
e|--------------------------------------------------------------------------|
b|--------------------------------------------------------------------------|
g|--x8--x8--x4--x4--x4----------last note-----------------------------------|
d|-------2~--6~--7~--2~-----------------------------------------------------|
a|--2~---0~--4~--5~--0~-----------2~----------------------------------------|
e|--0~----------------------------0~----------------------------------------|
Tap to rate this tab
 
# A B C D E F G H I J K L M N O P Q R S T U V W X Y Z