Song name
# A B C D E F G H I J K L M N O P Q R S T U V W X Y Z

Hawthorne Heights - Pens And Needles tab

(INTRO)                
Guitar 1               
e|---------------------|---------------||-------------------|
B*---------------------|---------------||-------------------|
G|-6*------------------|---------------||-------------------|
D|-6*----------2*------|-7-7-7--9-9-9--||-7-7-7-9*----------|
A*-4*----------2*------|-7-7-7--9-9-9--||-7-7-7-9*----------|
E|-------------0*------|-5-5-5--7-7-7--||-5-5-5-7*----------|

e|---------------------|-------------------|
B*---------------------|-------------------|
G|-6*------------------|-------------------|
D|-6*----------2*------|-7-7-7-9*----------|
A*-4*----------2*------|-7-7-7-9*----------|
E|-------------0*------|-5-5-5-7*----------|      


INTRO X2


Guitar 1    (let ring...)
|---------------------------------------------------|
|---------------------------------------------------|
|--6------4-----------------------------------------| X 4
|--6------4-----------------------------------------|
|--4------2-----------------------------------------|
|---------------------------------------------------|


(Pre-Chorus)
Guitar 1
|---------------------------------------------------|
|---------------------------------------------------|
|---------------------------------------------------| 
|-11\7------------------11\7------------------------|
|-11\7------------------11\7------------------------|
|-9 \5------------------9 \5------------------------|


(Chorus)Part 1
Guitar 1
|----------------------------------------------------|
|----------------------------------------------------|
|-6*-------------------------------------------------|  X 2
|-6*----------2*--------7-7-7-9-9-9-----------------|
|-4*----------2*--------7-7-7-9-9-9-----------------|
|-------------0*--------5-5-5-7-7-7-----------------|


(Chorus) Part 2
Guitar 1                                                                    
|-----------------------------------------------------|
|-----------------------------------------------------|
|-6-6-6-6-----------2-2-2-2-2-2---4-4-4-4----6--------|
|-6-6-6-6--2-2-2----2-2-2-2-2-2---4-4-4-4----6--------|
|-4-4-4-4--2-2-2----0-0-0-0-0-0---2-2-2-2----4--------|
|----------0-0-0--------------------------------------|

(Chorus) Part 1

Guitar 1
|----------------------------------------------------|
|----------------------------------------------------|
|-6*-------------------------------------------------|  X 2
|-6*----------2*--------7-7-7-9-9-9-----------------|
|-4*----------2*--------7-7-7-9-9-9-----------------|
|-------------0*--------5-5-5-7-7-7-----------------|

(VERSE 2)
Guitar 
|--------------------------------------------------|
*--------------------------------------------------|
|-6-6-6-6-6-6-----2-2-2-2-2-2-4-4-4-4-4-4----------|
|-6-6-6-6-6-6--2--2-2-2-2-2-2-4-4-4-4-4-4----------|
*-4-4-4-4-4-4--2--0-0-0-0-0-0-2-2-2-2-2-2----------|
|--------------0-----------------------------------|
PMX X X X X X  X  X X X X X X X X X X X

(Pre-Chorus)
Guitar 1
|---------------------------------------------------|
|---------------------------------------------------|
|---------------------------------------------------| 
|-11\7------------------11\7------------------------|
|-11\7------------------11\7------------------------|
|-9 \5------------------9 \5------------------------|


Chorus Part 1

Guitar 1
|----------------------------------------------------|
|----------------------------------------------------|
|-6*-------------------------------------------------|  X 2
|-6*----------2*--------7-7-7-9-9-9-----------------|
|-4*----------2*--------7-7-7-9-9-9-----------------|
|-------------0*--------5-5-5-7-7-7-----------------|


Bridge/solo
Guitar 1
|--------------------------------------------------------|
|--------------------------------------------------------|
|--------------------------------------------------------|
|-11\7--9-911\7--9-9--7--7-7--9-------------------------|
|-11\7--9-9-11\7--9-9--7--7-7--9-------------------------|
|-9 \5--7-7-9 \5--7-7--5--5-5--7-------------------------|


Breakdown/screaming part
e|--------------------------------------------------------------------------|
B|--------------------------------------------------------------------------|
G|---6-------------4--6-------------4--2----------------44444444------------|
D|---6--2-222-222--4--6--2-222-222--4--2--2-222-222--2--44444444------------|
A|---4--2-222-222--2--4--2-222-222--2--0--2-222-222--2--22222222------------|
E|------0-000-000--------0-000-000--------0-000-000--0----------------------|

Bridge (no guitar)

(Chorus) Part 2
Guitar 1                                                                    
|-----------------------------------------------------|
|-----------------------------------------------------|
|-6-6-6-6-----------2-2-2-2-2-2---4-4-4-4----6--------|
|-6-6-6-6--2-2-2----2-2-2-2-2-2---4-4-4-4----6--------| X 4
|-4-4-4-4--2-2-2----0-0-0-0-0-0---2-2-2-2----4--------|
|----------0-0-0--------------------------------------|

Tap to rate this tab
 
# A B C D E F G H I J K L M N O P Q R S T U V W X Y Z