Hawthorne Heights - Unforgivable tab

Helllo All, I'm VJ. This is my very first tab ever so be gentle. I am no genius at this. 
is an amazing song from Hawthorne Heights off their album "Skeletons". Great album and 
encourage you all to get it
Intro (not 100%)
e|-----------------------|
b|-----------------------|
g|---4---------4---------|
d|---x----2----x---------|
a|---2----0----2----5----|
E|------------------3----|

Other guitar does this in between guitar 1's chords

e|------------------------------------------------|
b|------------------------------------------------|
g|--16--18--19------16--18--19------16--18--19--18|
d|------------------------------------------------|
a|------------------------------------------------|
E|------------------------------------------------|

Pre Verse

e|----------------9-9-9--10-10-10---------------9-9-9--10-10-10-------------9-9-9-10-10-10-9-9-9-|
b|--5-5-5--7-7-7----------------5-5-5--7-7-7----------------5-5-5-7-7-7--------------------------|
g|-----------------------------------------------------------------------------------------------|
d|-----------------------------------------------------------------------------------------------|
a|-----------------------------------------------------------------------------------------------|
E|-----------------------------------------------------------------------------------------------|

Verse
  All I need        Your Juliet      Slowly sinking   I'm just your
e|---------------------------------------------------------------------|
b|---------------------------------------------------------------------|
g|44444444444444444-2222222222222222-----------------------------------|
d|44444444444444444-2222222222222222-5555555555555555-4444444444444444-|
a|22222222222222222-0000000000000000-5555555555555555-4444444444444444-|
E|-----------------------------------3333333333333333-2222222222222222-|
   ****************  ***************  ***************  ***************


  All I want is     to scratch       let the whole    it was time for
e|---------------------------------------------------------------------|
b|---------------------------------------------------------------------|
g|44444444444444444-2222222222222222-----------------------------------|
d|44444444444444444-2222222222222222-5555555555555555 7777777777777777-|
a|22222222222222222-0000000000000000-5555555555555555-7777777777777777-|
E|-----------------------------------3333333333333333-5555555555555555-|
   ****************  ***************  *************** ****************


Pre-Chorus

e|-------------------------------------|
b|-------------------------------------|
g|-22222222-4444444-55555555-77777777--|
d|-22222222-4444444-55555555-77777777--|X2
a|-00000000-2222222-33333333-55555555--|
E|-------------------------------------|

Guitar 1
Chorus

e|----------------9-9-9--10-10-10---------------9-9-9--10-10-10-|
b|--5-5-5--7-7-7-------------------5-5-5--7-7-7-----------------|
g|--------------------------------------------------------------|
d|--------------------------------------------------------------|
a|--------------------------------------------------------------|
E|--------------------------------------------------------------|

e|-------------------------------------------|
b|-------------------------------------------|
g|--12--12--12--11--11--11--9--9--9--7--7--7-|
d|---x---x---x---x---x---x--x--x--x--x--x--x-| x2
a|--10--10--10---9---9---9--9--9--9--9--9--9-|
E|-------------------------------------------|

e|----------------9-9-9--10-10-10---------------9-9-9--10-10-10-|
b|--5-5-5--7-7-7-------------------5-5-5--7-7-7-----------------|
g|--------------------------------------------------------------|
d|--------------------------------------------------------------|
a|--------------------------------------------------------------|
E|--------------------------------------------------------------|

e|--------------------------------------------------------------|
b|--------------------------------------------------------------|
g|----------12--------------------------------------------------|
d|-55555555--x---keep strumming slidiing up the frets-----------|
a|-55555555-10--------------------------------------------------|
E|-33333333-----------------------------------------------------|


Guitar 2
Chorus
  This is the       when i get my     I come home      I know you'll
e|---------------------------------------------------------------------|
b|---------------------------------------------------------------------|
g|44444444444444444-2222222222222222-----------------------------------|
d|44444444444444444-2222222222222222-5555555555555555-4444444444444444-|
a|22222222222222222-0000000000000000-5555555555555555-4444444444444444-|
E|-----------------------------------3333333333333333-2222222222222222-|

  I know I'm        Cross my heart   I try not to     I am so unforgivable
e|---------------------------------------------------------------------|
b|---------------------------------------------------------------------|
g|44444444444444444-2222222222222222-----------------------------------|
d|44444444444444444-2222222222222222-5555555555555555-4444444444444444-|
a|22222222222222222-0000000000000000-5555555555555555-4444444444444444-|
E|-----------------------------------3333333333333333-2222222222222222-|

Verse 2
All I need is to have to hear you
Reek me in then you disapear
You left me on my own
This is how it feels to be alone

         All I had        I wrote it down   afraid to show  I'm not sure
e|---------------------------------------------------------------------------|
b|---------------------------------------------------------------------------|
g|-pick/44444444444444444-2222222222222222-----------------------------------|
d|slide/44444444444444444-2222222222222222-5555555555555555 7777777777777777-|
a|-----/22222222222222222-0000000000000000-5555555555555555-7777777777777777-|
E|-----------------------------------------3333333333333333-5555555555555555-|


Pre-Chorus

e|-------------------------------------|
b|-------------------------------------|
g|-22222222-4444444-55555555-77777777--|
d|-22222222-4444444-55555555-77777777--|X2
a|-00000000-2222222-33333333-55555555--|
E|-------------------------------------|

Guitar 1
Chorus

e|----------------9-9-9--10-10-10---------------9-9-9--10-10-10-|
b|--5-5-5--7-7-7-------------------5-5-5--7-7-7-----------------|
g|--------------------------------------------------------------|
d|--------------------------------------------------------------|
a|--------------------------------------------------------------|
E|--------------------------------------------------------------|

e|-------------------------------------------|
b|-------------------------------------------|
g|--12--12--12--11--11--11--9--9--9--7--7--7-|
d|---x---x---x---x---x---x--x--x--x--x--x--x-| x2
a|--10--10--10---9---9---9--9--9--9--9--9--9-|
E|-------------------------------------------|

e|----------------9-9-9--10-10-10---------------9-9-9--10-10-10-|
b|--5-5-5--7-7-7-------------------5-5-5--7-7-7-----------------|
g|--------------------------------------------------------------|
d|--------------------------------------------------------------|
a|--------------------------------------------------------------|
E|--------------------------------------------------------------|

e|--------------------------------------------------------------|
b|--------------------------------------------------------------|
g|----------12--------------------------------------------------|
d|-55555555--x---keep strumming slidiing up the frets-----------|
a|-55555555-10--------------------------------------------------|
E|-33333333-----------------------------------------------------|


Guitar 2
Chorus
  This is the       when i get my     I come home      I know you'll
e|---------------------------------------------------------------------|
b|---------------------------------------------------------------------|
g|44444444444444444-2222222222222222-----------------------------------|
d|44444444444444444-2222222222222222-5555555555555555-4444444444444444-|
a|22222222222222222-0000000000000000-5555555555555555-4444444444444444-|
E|-----------------------------------3333333333333333-2222222222222222-|

  I know I'm        Cross my heart   I try not to     I am so unforgivable
e|---------------------------------------------------------------------|
b|---------------------------------------------------------------------|
g|44444444444444444-2222222222222222-----------------------------------|
d|44444444444444444-2222222222222222-5555555555555555-4444444444444444-|
a|22222222222222222-0000000000000000-5555555555555555-4444444444444444-|
E|-----------------------------------3333333333333333-2222222222222222-|

Interlude

e|---10--10--10--10--9---9---9---9---7---7---7---7---5---5---5---5--|
b|-7---7---7---7---7---7---7---7---7---7---7---7---7---7---7---7---7|
g|------------------------------------------------------------------|
d|------------------------------------------------------------------|
a|------------------------------------------------------------------| x2
E|------------------------------------------------------------------|


Breakdown

e|-------------------------------------|
b|-------------------------------------|
g|444444444-66666666-77777777-99999999-|
d|444444444-66666666-77777777-99999999-|
a|222222222-44444444-55555555-77777777-|
E|-------------------------------------|

e|-------------------------------------|
b|-------------------------------------|
g|444444444-66666666-77777777-9999-10-9|
d|444444444-66666666-77777777-9999-10-9|
a|222222222-44444444-55555555-7777 8--7|
E|-------------------------------------|


Guitar 1
Chorus

e|----------------9-9-9--10-10-10---------------9-9-9--10-10-10-|
b|--5-5-5--7-7-7-------------------5-5-5--7-7-7-----------------|
g|--------------------------------------------------------------|
d|--------------------------------------------------------------|
a|--------------------------------------------------------------|
E|--------------------------------------------------------------|

e|-------------------------------------------|
b|-------------------------------------------|
g|--12--12--12--11--11--11--9--9--9--7--7--7-|
d|---x---x---x---x---x---x--x--x--x--x--x--x-| x2
a|--10--10--10---9---9---9--9--9--9--9--9--9-|
E|-------------------------------------------|

e|----------------9-9-9--10-10-10---------------9-9-9--10-10-10-|
b|--5-5-5--7-7-7-------------------5-5-5--7-7-7-----------------|
g|--------------------------------------------------------------|
d|--------------------------------------------------------------|
a|--------------------------------------------------------------|
E|--------------------------------------------------------------|

e|--------------------------------------------------------------|
b|--------------------------------------------------------------|
g|----------12--------------------------------------------------|
d|-55555555--x---keep strumming slidiing up the frets-----------|
a|-55555555-10--------------------------------------------------|
E|-33333333-----------------------------------------------------|


Guitar 2
Chorus
  This is the       when i get my     I come home      I know you'll
e|---------------------------------------------------------------------|
b|---------------------------------------------------------------------|
g|44444444444444444-2222222222222222-----------------------------------|
d|44444444444444444-2222222222222222-5555555555555555-4444444444444444-|
a|22222222222222222-0000000000000000-5555555555555555-4444444444444444-|
E|-----------------------------------3333333333333333-2222222222222222-|

  I know I'm        Cross my heart   I try not to     I am so unforgivable
e|---------------------------------------------------------------------|
b|---------------------------------------------------------------------|
g|44444444444444444-2222222222222222-----------------------------------|
d|44444444444444444-2222222222222222-5555555555555555-4444444444444444-|
a|22222222222222222-0000000000000000-5555555555555555-4444444444444444-|
E|-----------------------------------3333333333333333-2222222222222222-|
Tap to rate this tab
 
# A B C D E F G H I J K L M N O P Q R S T U V W X Y Z