Song name
# A B C D E F G H I J K L M N O P Q R S T U V W X Y Z

Hawthorne Heights - Gravestones tab

Standard Tuning: EADGBe

VERSE:
e|---|-----|---|
B|---|-----|---|
G|---|-5---|---|
D|-2-|-5-5-|-2-|
A|-2-|-3-5-|-2-|
E|-0-|---3-|-0-|
listen to song for strumming pattern.

PRE-CHORUS:
e|----------------|
B|----------------|
G|-5-2-----4-5-7-7|
D|-5-2-5-7--------|
A|-3-0-5-7--------|
E|-----3-5--------|

CHORUS:
e|---------||---------|
B|---------||---------|
G|-----5-7-||---2---5-|
D|-7-3-5-7-||-2-2-3-5-|
A|-7-3-3-5-||-2-0-3-3-|
E|-5-1-----||-0---1---|
     x2         x1

VERSE:
e|---|-----|---|
B|---|-----|---|
G|---|-5---|---|
D|-2-|-5-5-|-2-|
A|-2-|-3-5-|-2-|
E|-0-|---3-|-0-|
listen to song for strumming pattern.

PRE-CHORUS:
e|----------------|
B|----------------|
G|-5-2-----4-5-7-7|
D|-5-2-5-7--------|
A|-3-0-5-7--------|
E|-----3-5--------|

CHORUS:
e|---------||---------|
B|---------||---------|
G|-----5-7-||---2---5-|
D|-7-3-5-7-||-2-2-3-5-|
A|-7-3-3-5-||-2-0-3-3-|
E|-5-1-----||-0---1---|
     x2         x1

THE END.
Tabbed by: TheAmberProject
Tap to rate this tab
# A B C D E F G H I J K L M N O P Q R S T U V W X Y Z