Song name
# A B C D E F G H I J K L M N O P Q R S T U V W X Y Z

Hawthorne Heights - Nervous Breakdown tab

Standard Tuning: EADGBe

INTRO/VERSE:  x3
e|------------------------------------------------------------------|
B|------------------------------------------------------------------|
G|------------------------------------------------------------------|
D|---002244----------002244----------002244----------002244---------|
A|-22------22-022-022------22-022-0---------------------------------|
E|---------------------------------33------33-033-033------33-033-0-|


PRE-CHORUS:
e|-------------------------|
B|-------------------------|
G|-----4-22---------4-22---|
D|-5---4-22---4-5---4-22---|
A|-5---2-00---4-5---2-00---|
E|-3----------2-3----------|

CHORUS:
e|-----------------------------------------------------|
B|-----------------------------------------------------|
G|-----2-4--2-X2-----2-4--7-X7-----2-4-----------------|
D|-5---2-4--2-X2-5---2-4--7-X7-5---2-4--4-X4-5----7----|
A|-5---0-2--0-X0-5---0-2--5-X5-5---0-2--4-X4-5----7----|
E|-3-------------3-------------3--------2-X2-3----5----|

VERSE:  x1
e|-------------------------------------
B|-------------------------------------
G|-44-XXXXXX-44-XXXXXX-44-XXXXXX-44-22-
D|-44-XXXXXX-44-XXXXXX-44-XXXXXX-44-22-
A|-22-XXXXXX-22-XXXXXX-22-XXXXXX-22-00-
E|-------------------------------------

  -------------------------------------------|
  -------------------------------------------|
  ---77/99/1111----XXXXXX---77/99/1111-------|
  -55XX/XX/-X-X-55-XXXXXX-55XX/XX/-X-X-55-77-|
  -5555/77/-9-9-55-XXXXXX-5555/77/-9-9-55-77-|
  -33-----------33--------33-----------33-55-|

PRE-CHORUS:
e|-------------------------|
B|-------------------------|
G|-----4-22---------4-22---|
D|-5---4-22---4-5---4-22---|
A|-5---2-00---4-5---2-00---|
E|-3----------2-3----------|

CHORUS:
e|-----------------------------------------------------|
B|-----------------------------------------------------|
G|-----2-4--2-X2-----2-4--7-X7-----2-4-----------------|
D|-5---2-4--2-X2-5---2-4--7-X7-5---2-4--4-X4-5----7----|
A|-5---0-2--0-X0-5---0-2--5-X5-5---0-2--4-X4-5----7----|
E|-3-------------3-------------3--------2-X2-3----5----|

BRIDGE:
e|--------------------------------------------------|
B|--------------------------------------------------|
G|--------------------------------------------------|
D|--------------------------------------------------|
A|-2-20-0------5-54-42-21-15-54-42-21-15-54-42-21-1-|
E|-------3-32-27-75-53-32-27-75-53-32-27-75-53-32-2-|
       
e|-------------0---|
B|---------....0---|
G|-........22222---|
D|-5555555522222---|
A|-5555555500000---|
E|-33333333--------|

CHORUS:
e|-----------------------------------------------------|
B|-----------------------------------------------------|
G|-----2-4--2-X2-----2-4--7-X7-----2-4-----------------|
D|-5---2-4--2-X2-5---2-4--7-X7-5---2-4--4-X4-5----7----|
A|-5---0-2--0-X0-5---0-2--5-X5-5---0-2--4-X4-5----7----|
E|-3-------------3-------------3--------2-X2-3----5----|


THE END.
Tabbed by: TheAmberProject
Tap to rate this tab
 
# A B C D E F G H I J K L M N O P Q R S T U V W X Y Z