Hawthorne Heights - Niki Fm Acoustic tab

Hawthorne Heights: Niki FM (Acoustic)


I watched a few of HH's acoustic videos and picked up this version. Enjoy.

Standard: EADGBE

Intro:

|----------------------------------|         |---------|
|----------------------------------|         |---------|
|----------------------------------| x2      |-6-----2-|
|--2-2-2-2-4-4-6-6-2-2-2-2-4-4-4-4-|         |-6--2--2-|
|-4-4-4-4-6-6-7-7-0-0-0-0-2-2-2-2--|         |-4--2--0-|
|----------------------------------|         |----0----|

Verse:

|----------0-------------0-------------0-------------0------|
|---------4-4-----------4-4-----------4-4-----------4-4-----|
|-66-66--4---4--66-66--4---4--22-22--4---4--22-22--4-----4--| x2
|-66-66---------66-66---------22-22---------22-22--------4--|
|-44-44---------44-44---------00-00---------00-00--------2--| 
|-----------------------------------------------------------|

|----------7-------------7-------------7-------------7------|
|---------5-5-----------5-5-----------5-5-----------5-5-----|
|-66-66--6---6--66-66--6---6--22-22--6---6--22-22--6-----4--| x2
|-66-66---------66-66---------22-22---------22-22--------4--|
|-44-44---------44-44---------00-00---------00-00--------2--| 
|-----------------------------------------------------------|

Pre-chorus:

|---------------9-7---|      |---------|
|---------------------|      |---------|
|---8-6------7/9-9-9--| x2   |--6---2--|
|--6-6-6---9----------|      |--6-2-2--|
|-4-------7-----------|      |--4-2-0--|
|---------------------|      |----0----|

Chorus:

|-----------------------------------|
|-----------------------------------|
|-6666-6666--4--2-2--4-4--2-2--4-4--|
|-6666-6666--4--2-2--4-4--2-2--4-4--|
|-4444-4444--2--0-0--2-2--0-0--2-2--|
|-----------------------------------|

Verse:

|----------0-------------0-------------0-------------0------|
|---------4-4-----------4-4-----------4-4-----------4-4-----|
|-66-66--4---4--66-66--4---4--22-22--4---4--22-22--4-----4--| x2
|-66-66---------66-66---------22-22---------22-22--------4--|
|-44-44---------44-44---------00-00---------00-00--------2--| 
|-----------------------------------------------------------|

|----------7-------------7-------------7-------------7------|
|---------5-5-----------5-5-----------5-5-----------5-5-----|
|-66-66--6---6--66-66--6---6--22-22--6---6--22-22--6-----4--| x2
|-66-66---------66-66---------22-22---------22-22--------4--|
|-44-44---------44-44---------00-00---------00-00--------2--| 
|-----------------------------------------------------------|

Chorus:

|-----------------------------------|
|-----------------------------------|
|-6666-6666--4--2-2--4-4--2-2--4-4--|
|-6666-6666--4--2-2--4-4--2-2--4-4--|
|-4444-4444--2--0-0--2-2--0-0--2-2--|
|-----------------------------------|

|---------|
|---------|
|-6-----2-|
|-6--2--2-|
|-4--2--0-|
|----0----|

|-----------------------------------|
|-----------------------------------|
|-6666-6666--4--2-2--4-4--2-2--4-4--|
|-6666-6666--4--2-2--4-4--2-2--4-4--|
|-4444-4444--2--0-0--2-2--0-0--2-2--|
|-----------------------------------|

Bridge 1:

|----------------------------------|
|----------------------------------|
|----------------------------------| x4
|--2-2-2-2-4-4-6-6-2-2-2-2-4-4-4-4-|
|-4-4-4-4-6-6-7-7-0-0-0-0-2-2-2-2--|
|----------------------------------|

Last time on Bridge 1 finish with this:

|---|
|---|
|-4-|
|-4-|
|-2-|
|---|

Bridge 2:

|---------------------------------|
|---------------------------------|
|-66------66---44---22------44----| x4
|-66-22---66-2-44-2-22-22---44-22-|
|-44-22---44-2-22-2-00-22---22-22-|
|----00------0----0----00------00-|

Outro:

|--12--12--11--12--7--7-------------------|
|-----------------------------------------|
|-----9---9---9---9--8--8----8--9---8-----| x3
|----9---9---9---9--9--9--/9---9--9---9---|
|-----------------------------------------|
|-----------------------------------------|

|--0--|
|--0--|
|--2--|
|--2--| End with this and fade out.
|--0--|
|--0--|

Questions? Comments? Any editing that you think I should make?
Email me at zach.laberge@gmail.com
Tap to rate this tab
 
# A B C D E F G H I J K L M N O P Q R S T U V W X Y Z