Hawthorne Heights - Nervous Breakdown tab

Standard Tuning  (intro)2 times
e---------------------------------------------------------------------------|
B---------------------------------------------------------------------------|
G---------------------------------------------------------------------------|
D---------------------------------------------------------------------------|
A---9--9----9--------------7--7----9-9----9---9------9--9-------------------|
E---7--7----7-----10--10------------------7---7------7--7-------------------|

e---------------------------------------------------------------------------|
B---------------------------------------------------------------------------|
G---------------------------------------------------------------------------|
D-----------------------------4-4-------------------------------------------|
A--5-5---5---5--5------7--7---------------5---5--------5--5-----------------|
E--3-3---3--------------------------------3---3--------3--3-----------------|

Verse  Same as intro

Pre Chorus


e---------------------------------------------------------------------------|
B---------------------------------------------------------------------------|
G---------------------------------------------------------------------------|
D----7-----9-----4-----5----------7----9------------------------------------|
A----7-----9-----4-----5----------7----9------------------------------------|
E----5-----7-----2-----3----------5----7------------------------------------|

Chorus (Listen for strumming)Repeat twice

e---------------------------------------------------------------------------|
B---------------------------------------------------------------------------|
G---------------------------------------------------------------------------|
D--5-----7---9------7-----5-----7---9--12-----------------------------------|
A--5-----7---9------7-----5-----7---9--12-----------------------------------|
E--3-----5---7------5-----3-----5---7--10-----------------------------------|


Verse 2 same as verse 1
Bridge same as pre chrous


The lead guitar you hear in the verses is just octave chords.  again listen for strumming hahah.

e----------------------------------------------------------------------------|
B----------------------------------------------------------------------------|
G-----7----9----11-----------------------------------------------------------|
D-----x----x----x------------------------------------------------------------|
A-----5----7----9------------------------------------------------------------|
E----------------------------------------------------------------------------|

well this is a good song and a great album.  I did a tab for Bring you Back and i love 
album.  Underated song.  Both tabs i did by ear and expect to see more from this album 
:)
Tap to rate this tab
 
# A B C D E F G H I J K L M N O P Q R S T U V W X Y Z