Song name
# A B C D E F G H I J K L M N O P Q R S T U V W X Y Z

Hawthorne Heights - Bring You Back tab

Verse 1
e---------------------------------------------------------------------------|
B---------------4(x's16)----------------------------------------------------|
G----9(x's16)---------------6(x's16)------4(x's8)-----2(x's8)---------------|
D---------------------------------------------------------------------------|
A---------------------------------------------------------------------------|
E---------------------------------------------------------------------------|

Verse 1 (Part 2)


e---------------------------------------------------------------------------|
B---------------------------------------------------------------------------|
G----9(x's16)---9-(x's16)---6(x's16)------4(x's8)-----2(x's8)---------------|
D----9----------9-----------6-------------2-----------0---------------------|
A----7----------6-----------4-------------2-----------0---------------------|
E---------------------------------------------------------------------------|

Pre Chorus
Listen for Strumming
e---------------------------------------------------------------------------|
B---------------------------------------------------------------------------|
G---------------------------------------------------------------------------|
D-----9---------------11-----------7----------------------------------------|
A-----9---------------11-----------7----------------------------------------|
E-----7---------------9------------5----------------------------------------|
Play Twice


Chrous
Listen For Strumming

e---------------------------------------------------------------------------|
B---------------------------------------------------------------------------|
G-----9---------------------------------------------------------------------|
D-----9----7-----11-----9----7----------------------------------------------|
A-----7----7-----11-----9----7----------------------------------------------|
E----------5-----9------7----5----------------------------------------------|

Verse again

Pre Choruse Again

Chorus Again

For Bridge Play the Chords for the Chorus again but just strum one time and then play 
Chorus for the outro and you've got it!

I learned this whole song by ear.  I feel in love with it when it came out and i know 
it feels to lose someone to suicide so this goes out to anyone else who has lost someone.  
me if you have any question :)
Tap to rate this tab
 
# A B C D E F G H I J K L M N O P Q R S T U V W X Y Z