Hawthorne Heights - Sugar In The Engine tab

Alright, this is the intro part to sugar in the engine by Hoothorne. Nothing to it, but 
one seems to be able to figure it out. I didn't include the first chord because i'm not 
sure what it is, but i'm fairly sure the rest is somewhat accurate.

-----------------------------------------------------------------------------
			     Sugar in the Engine - Hawthorne Heights
-----------------------------------------------------------------------------
Tabbed by: Braedon Sutherland
Email: bsandme@hotmail.com (feel free, i'll reply)

Tuning: Standard                                 Do this twice
e|------3--3-3-3---------------3--3-3-3-------------------------------------|
B|------3--3-3-3---------0-----0--0-0-0-------------------------------------|
G|------2--2-2-2-0-0-0-0-0-----0--0-0-0-------------------------------------|
D|--2-2----------0-0-0-0-2-2-2-2--2-2-2--0--0-0s4-4-------------------------|
A|--2-2---------10-9-7-5-3-3-3-3--3-3-3--2--2-2s5-5-------------------------|
E|--0-0----------0---------0------------------------------------------------|
Med/High Dist on bridge pup             Do this multiple times
e|--------------------------------------------------------------------------|
B|--------------------------------------------------------------------------|
G|--------------------------------------------------------------------------|
D|-------2---------2---------2-------2-----1--------------------------------|
A|-2-2-2-2---2-2-2-2---2-2-2-2-2-2-2-2-2-2-2--------------------------------|
E|-0-0-0-0---0-0-0-0---0-0-0-0-0-0-0-0-0-0-0--------------------------------|
   * * *     * * *     * * *   * * *   * *

************************************

| /   slide up
| \   slide down
| h   hammer-on
| p   pull-off
| ~   vibrato
| +   harmonic
| x   Mute note
| b   Bend
| pb  Pre-bend
| br  Bend release
| pbr Pre-bend release
| brb Bend release bend

***********************************
Tap to rate this tab
 
# A B C D E F G H I J K L M N O P Q R S T U V W X Y Z