Hawthorne Heights - Sugar In The Engine tab

Alright, i uploaded another version of sugar in the engine but that was
just the intro. this time I'm actually logged in:D if you have any
questions about this tab or corrections please contact me through my
email rather than my UG profile, as i rarely check anything on this
site. This tab is pretty easy, nothing to it really. I've tabbed all 3
guitar lines this time. This song was actually written while Casey was
still kicking so i included a guitar line for him even though it was
most likely done by Micah.
Email: Bsandme@hotmail.com (i'll reply, so feel free)
Tabbed by:Braedon Sutherland
Email: bsandme@hotmail.com
Guitar 1 - Lead (Micah Carli)
Guitar 2 - Rhythm (JT Woodruff)
Guitar 3 - Third Guitar (RIP Casey Calvert)
Tuning: All Standard

Acoustic Intro

Guitar 1            do this part twice, second time without the slide
e|---------3-33------------------0-0-3-3-0-0-0-0-0-0------------------------|
B|---------3-33------------------0-0-0-0-0-0-0-0-0-0------------------------|
G|---------2-22----0---0---------0-0-0-0-0-0-0-0-0-0------------------------|
D|---------------9---7---5--4-22-2-2-2-2-0-0-0-4-4-4------------------------|
A|-----2-2------10-------7--5-33-3-3-3-3s2-2-2s5-5-5------------------------|
E|12\--0-0------------------------------------------------------------------|
Guitar 2
e|--------------------------------------------------------------------------|
B|--------------------------------------------------------------------------|
G|--------------------------------------------------------------------------|
D|--------------------------------------------------------------------------|
A|--------------------------------------------------------------------------|
E|--------------------------------------------------------------------------|
Guitar 3
e|--------------------------------------------------------------------------|
B|--------------------------------------------------------------------------|
G|--------------------------------------------------------------------------|
D|--------------------------------------------------------------------------|
A|--------------------------------------------------------------------------|
E|--------------------------------------------------------------------------|

Distorted Intro, Verse 1

Guitar 1
                 This Part is played twice in the intro and 4 times in verse
e|--------------------------------------------------------------------------|
B|--------------------------------------------------------------------------|
G|--------------------------------------------------------------------------|
D|----2------2------2--2--1-------------------------------------------------|
A|-222----222----222-22-222-------------------------------------------------|
E|-000----000----000-00-00--------------------------------------------------|
   ***    ***    *** ** **
Guitar 2           This comes in on the second time, plays 4x
e|--------------------------------------------------------------------------|
B|--------------------------------------------------------------------------|
G|--------------------------------------------------------------------------|
D|2----------1-5------4-----------------------------------------------------|
A|2------------3------2-----------------------------------------------------|
E|0-------------------------------------------------------------------------|
Guitar 3                 This as well comes in on the second time, plays 4x
e|--------------------------------------------------------------------------|
B|--------------------------------------------------------------------------|
G|--------------------------------------------------------------------------|
D|2------------5------4-----------------------------------------------------|
A|2----------2-3------2-----------------------------------------------------|
E|0-------------------------------------------------------------------------|

Chorus
Guitar 1 X2
e|----3---------------------------------------------------------------------|
B|----3--------------0----0-------------------------------------------------|
G|----2--------------0----0-------------------------------------------------|
D|2------------------0----4-------------------------------------------------|
A|2-----10-9-7-5-7---2----5-------------------------------------------------|
E|0-------------------------------------------------------------------------|
Guitar 2 X2
e|----3---------------------------------------------------------------------|
B|----3--------------0----0-------------------------------------------------|
G|----2--9-7-5-4-5---0----0-------------------------------------------------|
D|2------------------0----4-------------------------------------------------|
A|2------------------2----5-------------------------------------------------|
E|0-------------------------------------------------------------------------|

e|----3---------------------------------------------------------------------|
B|----3---0----------0----0-------------------------------------------------|
G|----2---0----------0----0-------------------------------------------------|
D|2-------2----------0----4-------------------------------------------------|
A|2-------3----------2----5-------------------------------------------------|
E|0-------------------------------------------------------------------------|

All guitars do the verse again, then the chorus again, and the extended bit of the 
chorus i havent managed to figure out yet, but i'll tab it soon enough.
the breakdown part (one day i'll feel alive, repeated over and over)(note, theres only 1 
playing this, thats guitar 1. guitar 2 and 3 were added by me to add difficulty, so 
arent necessary, just thought id give people something cool to play)
Guitar 1
e|--------------------------------------------------------------------------|
B|--------------------------------------------------------------------------|
G|--------------------------------------------------------------------------|
D|-7-----8----8-8--9-2------------------------------------------------------|
A|-5-----6----6-6--7-2------------------------------------------------------|
E|-------------------0------------------------------------------------------|
Guitar 2 (i added this in myself because this part seemed too easy)
e|--------------------------------------------------------------------------|
B|--------------------------------------------------------------------------|
G|-------------------9------------------------------------------------------|
D|-2-----3----3-3--4-x------------------------------------------------------|
A|-2-----3----3-3--4-7------------------------------------------------------|
E|-0-----1----1-1--2--------------------------------------------------------|
Guitar 3 (i also added this myself, which is why it's guitar 3 and not 1)
e|--------------------------------------------------------------------------|
B|-5-----6----6-6--7--------------------------------------------------------|
G|-x-----x----x-x--x--------------------------------------------------------|
D|-2-----3----3-3--4-2------------------------------------------------------|
A|-------------------2------------------------------------------------------|
E|-------------------0------------------------------------------------------|

then we return to a chorus, and that notorious extended chorus i cant discern for the 
of me, and then JT's short Spoken word part before the best song on fragile future ends.

**********************************

| /   slide up
| \   slide down
| h   hammer-on
| p   pull-off
| ~   vibrato
| +   harmonic
| x   Mute note
| b   Bend
| pb  Pre-bend
| br  Bend release
| pbr Pre-bend release
| brb Bend release bend

************************************
Tap to rate this tab
 
# A B C D E F G H I J K L M N O P Q R S T U V W X Y Z