Song name
# A B C D E F G H I J K L M N O P Q R S T U V W X Y Z

Hawthorne Heights - Watching And Waiting tab

Tuning: Standard (EADGBe)

Well, this is my first tab. This is an amazing song by Hawthorne Heights even though 
it's on the obscure side. It's a bonus track from the album, "Skeletons". Please leave your 
ratings to let me know what you think.

intro
                                              first ending
e|------------------------------------------|--0------------|
B|-----------------------------------1------|----1---1------|
G|---------------------------------0---0----|------0---0----|
D|-----2-----2-----0-----2-------2-------2--|------------2--|
A|---2-----0-----2-----0---2---3------------|---------------|
E|-0-----2-----3----------------------------|---------------|

second ending

e|-0-----3-----|
B|---1-----1---|
G|-----0-----0-|
D|-------------|
A|-------------|
E|-------------|

(repeat intro twice)
then...
-Intro Ending-
e|-------------------------------------------------|
B|-------------------------------------------------|
G|-------------------------------------------------|
D|---------------------9--10---10---10---10-10-10--| (x2)
A|-2----4----5----7----9--10---10---10---10-10-10--|
E|-0----2----3----5----7--8----8----8----8--8--8---|

(repeat intro twice with the same two endings)
then...

-Verse-
gtr 1
e|----0-------0-------0--------------------------0--------------|
B|------0-------0-------0-----0-----------1--------1-----1------|
G|--------------------------------------0---0--------0-----0----|
D|------------------------------------2-------2--------------2--|
A|--------------------------0---2---3---------------------------|
E|-0-------2-------3--------------------------------------------|

                                       gtr 1
e|----------------------------------|-0----3--|
B|-------0-----0---------0-------0--|-1----3--|
G|-----0---------------0-------0----|-0----0--|
D|----------------------------------|-2----0--|
A|----------------------------------|-3----2--|
E|-0-------2-----3--2-------3-------|------3--|

gtr 2
e|--------------------|
B|--------------------|
G|--9-------12--------|
D|--x-(x12)-x---(x12)-|(you can hear it on the 7th fret
A|--7-------10--------| fading in before C and G are played)
E|--------------------|

-Chorus-
gtr 1
e|---------------------------------------|
B|---------------------------------------|
G|---------------------------------------|
D|-10------9------10------2------5-------|
A|-10-(x6)-9-(x6)-10-(x6)-2-(x3)-5-(x3)--|
E|-8-------7------8-------0------3-------|

gtr 2
e|---------------------------------------|
B|---------------------------------------|
G|-5------4------5-------9------12-------|
D|-x-(x6)-x-(x6)-x-(x6)--x-(x3)-x--(x3)--|
A|-3------2------3-------7------10-------|
E|---------------------------------------|
then...

gtr 1
e|-----------------|
B|-----------------|
G|-----------------|
D|-10------9-------|
A|-10-(x6)-9-(x6)--|
E|-8-------7-------|

gtr 2
e|-------------------------------------|
B|-------------------------------------|
G|-5------4------9---9---11--11-11-11--|
D|-x-(x6)-x-(x6)-x---x---x---x--x--x---|
A|-3------2------7---7---9---9--9--9---|
E|-------------------------------------|
then...

gtr 1
e|---------------------------------------|
B|---------------------------------------|
G|---------------------------------------|
D|-10------9------10------2------5-------|
A|-10-(x6)-9-(x6)-10-(x6)-2-(x3)-5-(x3)--|
E|-8-------7------8-------0------3-------|

gtr 2
e|---------------------------------------|
B|---------------------------------------|
G|-5------4------5-------9------12-------|
D|-x-(x6)-x-(x6)-x-(x6)--x-(x3)-x--(x3)--|
A|-3------2------3-------7------10-------|
E|---------------------------------------|


gtr 3 (clean)
e|---10----12---------10----12--------10----12---------|
B|------8----12----------8----12---------8----12-------|
G|-9-----------12---9-----------12--9-----------12-----|
D|-------------------------------------------------16--|
A|-----------------------------------------------------|
E|-----------------------------------------------------|
then...

gtr 1
e|------------------------------------------------------------|
B|------------------------------------------------------------|
G|-----------------11-x-x-x-x-11-x-x-x-x-11-x-x-x-x-11-11-11--|
D|-10------9-------x--x-x-x-x-x--x-x-x-x-x--x-x-x-x-x--x--x---|
A|-10-(x6)-9-(x6)--9--x-x-x-x-9--x-x-x-x-9--x-x-x-x-9--9--9---|
E|-8-------7--------------------------------------------------|

gtr 3 (clean)
e|---10----12---------10----12------|
B|------8----12----------8----12----|
G|-9-----------12---9-----------12--|
D|----------------------------------|
A|----------------------------------|
E|----------------------------------|

gtr 2
e|----------------------------------------------------|
B|----------------------------------------------------|
G|-5------4------9-x-x-x-x-9-x-x-x-x-9-x-x-x-x-9-9-9--|
D|-x-(x6)-x-(x6)-x-x-x-x-x-x-x-x-x-x-x-x-x-x-x-x-x-x--|
A|-3------2------7-x-x-x-x-7-x-x-x-x-7-x-x-x-x-7-7-7--|
E|----------------------------------------------------|


(repeat the intro twice)

(then play the verse)

(then play the chorus)

Epic creepy bridge time!

gtr 1
e|--------------------------------------7-------7-------7-------7----|
B|---8-------8-------8--------13----------8-------8-------8-------8--|
G|-----9-------9-------9----9----12---9-------9-------9-------9------|(x2)
D|-9-------9-------9-------------------------------------------------|
A|-------------------------------------------------------------------|
E|-------------------------------------------------------------------|
then...

gtr 1
e|--------------------------------------7-------7-------7-------7----|
B|---8-------8-------8--------13----------8-------8-------8-------8--|
G|-----9-------9-------9---/9----12---9-------9-------9-------9------|(x2)
D|-9-------9-------9-------------------------------------------------|
A|-------------------------------------------------------------------|
E|-------------------------------------------------------------------|

gtr 2
e|---------------------------------------------------------|
B|---------------------------------------------------------|
G|---------------------------------------------------------|(x2)
D|---------------------------------------------------------|
A|-22222--22222--22222--22222--22222--22222--22222--22222--|
E|-00000--00000--00000--00000--00000--00000--00000--00000--|
then...

gtr 1
e|--------------------------------------7-------7-------7-------7----|
B|---8-------8-------8--------13----------8-------8-------8-------8--|
G|-----9-------9-------9---/9----12---9-------9-------9-------9------|(x2)
D|-9-------9-------9-------------------------------------------------|
A|-------------------------------------------------------------------|
E|-------------------------------------------------------------------|

gtr 3
e|---------------------------------------|
B|---------------------------------------|
G|---------------------------------------|
D|--------------------2-4-5-7---2-4-5-7--|
A|---------------------------------------|
E|-0-2-3-5---0-2-3-5---------------------|

gtr 2
e|---------------------------------------------------------|
B|---------------------------------------------------------|
G|---------------------------------------------------------|
D|---------------------------------------------------------|
A|-22222--22222--22222--22222--22222--22222--22222--22222--|
E|-00000--00000--00000--00000--00000--00000--00000--00000--|

e|-----------------------------------------------------------------------|
B|-----------------------------------------------------------------------|
G|-----------------------------9---11--12--14---16-17--17--17--17-17-17--|
D|-----------------------------x---x---x---x----x--x---x---x---x--x--x---|
A|-22222--22222--22222--22222--7---9---10--12---14-15--15--15--15-15-15--|
E|-00000--00000--00000--00000--------------------------------------------|

then back into the chorus:

gtr 1
e|---------------------------------------|
B|---------------------------------------|
G|---------------------------------------|
D|-10------9------10------2------5-------|
A|-10-(x6)-9-(x6)-10-(x6)-2-(x3)-5-(x3)--|
E|-8-------7------8-------0------3-------|

gtr 2
e|---------------------------------------|
B|---------------------------------------|
G|-5------4------5-------9------12-------|
D|-x-(x6)-x-(x6)-x-(x6)--x-(x3)-x--(x3)--|
A|-3------2------3-------7------10-------|
E|---------------------------------------|


gtr 3 (clean)
e|---10----12---------10----12--------10----12---------|
B|------8----12----------8----12---------8----12-------|
G|-9-----------12---9-----------12--9-----------12-----|
D|-------------------------------------------------16--|
A|-----------------------------------------------------|
E|-----------------------------------------------------|
then...

gtr 1
e|-----------------|
B|-----------------|
G|-----------------|
D|-10------9-------|
A|-10-(x6)-9-(x6)--|
E|-8-------7-------|

gtr 3 (clean)
e|---10----12---------10----12------|
B|------8----12----------8----12----|
G|-9-----------12---9-----------12--|
D|----------------------------------|
A|----------------------------------|
E|----------------------------------|

gtr 2
e|-------------------------------------|
B|-------------------------------------|
G|-5------4------9---9---11--11-11-11--|
D|-x-(x6)-x-(x6)-x---x---x---x--x--x---|
A|-3------2------7---7---9---9--9--9---|
E|-------------------------------------|
then...

gtr 1
e|---------------------------------------|
B|---------------------------------------|
G|---------------------------------------|
D|-10------9------10------2------5-------|
A|-10-(x6)-9-(x6)-10-(x6)-2-(x3)-5-(x3)--|
E|-8-------7------8-------0------3-------|

gtr 2
e|---------------------------------------|
B|---------------------------------------|
G|-5------4------5-------9------12-------|
D|-x-(x6)-x-(x6)-x-(x6)--x-(x3)-x--(x3)--|
A|-3------2------3-------7------10-------|
E|---------------------------------------|


gtr 3 (clean)
e|---10----12---------10----12--------10----12---------|
B|------8----12----------8----12---------8----12-------|
G|-9-----------12---9-----------12--9-----------12-----|
D|-------------------------------------------------17--|
A|-----------------------------------------------------|
E|-----------------------------------------------------|
then...

gtr 1
e|------------------------------------------------------------|
B|------------------------------------------------------------|
G|-----------------11-x-x-x-x-11-x-x-x-x-11-x-x-x-x-11-11-11--|
D|-10------9-------x--x-x-x-x-x--x-x-x-x-x--x-x-x-x-x--x--x---|
A|-10-(x6)-9-(x6)--9--x-x-x-x-9--x-x-x-x-9--x-x-x-x-9--9--9---|
E|-8-------7--------------------------------------------------|

gtr 3 (clean)
e|---10----12---------10----12------|
B|------8----12----------8----12----|
G|-9-----------12---9-----------12--|
D|----------------------------------|
A|----------------------------------|
E|----------------------------------|

gtr 2
e|----------------------------------------------------|
B|----------------------------------------------------|
G|-5------4------9-x-x-x-x-9-x-x-x-x-9-x-x-x-x-9-9-9--|
D|-x-(x6)-x-(x6)-x-x-x-x-x-x-x-x-x-x-x-x-x-x-x-x-x-x--|
A|-3------2------7-x-x-x-x-7-x-x-x-x-7-x-x-x-x-7-7-7--|
E|----------------------------------------------------|

and the end...

gtr 1
e|----------------------------------------|
B|----------------------------------------|
G|-9-x-x-x-x-9-x-x-x-x-9-x-x-x-x-9-9-9/0--|
D|-x-x-x-x-x-x-x-x-x-x-x-x-x-x-x-x-x-x/0--|
A|-7-x-x-x-x-7-x-x-x-x-7-x-x-x-x-7-7-7/0--|
E|----------------------------------------|

gtr 2
e|----------------------------------------------|
B|----------------------------------------------|
G|-12-x-x-x-x-12-x-x-x-x-12-x-x-x-x-12-12-12/0--|
D|-x--x-x-x-x-x--x-x-x-x-x--x-x-x-x-x--x--x-/0--|
A|-10-x-x-x-x-10-x-x-x-x-10-x-x-x-x-10-10-10/0--|
E|----------------------------------------------|

Hope you like learnign this song...it's pretty easy and really fun.

The order goes like this:
intro x2
intro end x1
intro x2
verse x1
chorus x1
intro x2
verse x1
chorus x1
bridge x1
chrous x1
end x1
Tap to rate this tab
# A B C D E F G H I J K L M N O P Q R S T U V W X Y Z