Song name
# A B C D E F G H I J K L M N O P Q R S T U V W X Y Z

Hawthorne Heights - Until Her Heart Stops tab

HAWTHORNE HEIGHTS
UNTIL HER HEART STOPS
STANDARD

Palm mute - *
Mute      - X
Let Ring  - ~


Intro 0:00 (second time through is different)
Gtr1
e|-----------------------------------------------------------|
B|-----------------------------------------------------------|
G|-----------------------------------------------------------|
D|-9~-------------9~---9~---9~-6~-------------6~---6~---6~-4~|
A|-9~-9-9-9-9-9-9-9~-9-9~-9-9~-6~-6-6-6-6-6-6-6~-6-6~-6-6~-4~|
E|-7~-7-7-7-7-7-7-7~-7-7~-7-7~-4~-4-4-4-4-4-4-4~-4-4~-4-4~-2~|
      * * * * * *    *    *       * * * * * *    *    *      |

------------------------------------------------------|
------------------------------------------------------|
------------------------------------------------------|
-------------4~---4~---4~-2~-------------2~---2~---2~-|
-4-4-4-4-4-4-4~-4-4~-4-4~-2~-2-2-2-2-2-2-2~-2-2~-2-2~-|
-2-2-2-2-2-2-2~-2-2~-2-2~-0~-0-0-0-0-0-0-0~-0-0~-0-0~-|
 * * * * * *    *    *       * * * * * *    *    * 
Gtr2
e|----------------------------------------------------------------|
B|----------------------------------------------------------------|
G|-8~-------------9~---9~---9~-8~-------------8~---8~---8~-6~-----|
D|-X~-------------X~---X~---X~-X~-------------X~---X~---X~-X~-----|
A|-6~-------------7~---7~---7~-6~-------------6~---6~---6~-4~-----|
E|----------------------------------------------------------------|

-------------------------------------------------|
-------------------------------------------------|
--------6~---6~---6~-4~----------8~8~8~8~11~11~11|
--------X~---X~---X~-X~----------X~X~X~X~X~-X~-X~|
--------4~---4~---4~-2~----------6~6~6~6~9~-9~-9~|
-------------------------------------------------|
                                                    X2

WHEN YOU GO THROUGH THE INTRO FOR THE SECOND TIME THE FIRST GUITAR CHANGES A 
LITTLE AND DOES THIS. GTR2 THE SAME.
e|-----------------------------------------------------------|
B|-----------------------------------------------------------|
G|-----------------------------------------------------------|
D|-9~-------------9~---9~---9~-6~-------------6~---6~---6~-4~|
A|-9~-9-9-9-9-9-9-7~-7-6~-6-7~-6~-6-6-6-6-6-6-6~-6-6~-6-6~-4~|
E|-7~-7-7-7-7-7-7-7~-7-6~-6-7~-4~-4-4-4-4-4-4-4~-4-4~-4-4~-2~|
      * * * * * *    *    *       * * * * * *    *    *      |

------------------------------------------------------|
------------------------------------------------------|
------------------------------------------------------|
-------------4~---4~---4~-2~-------------2~---2~---2~-|
-4-4-4-4-4-4-2~-2-1~-1-2~-2~-2-2-2-2-2-2-2~-2-2~-2-2~-|
-2-2-2-2-2-2-2~-2-1~-1-2~-0~-0-0-0-0-0-0-0~-0-0~-0-0~-|
 * * * * * *    *    *       * * * * * *    *    * 





CHORUSY PART 0:23
GTR1                                                         PICK-SLIDE AT END OF SECOND TIME
e|---------------------------------------------------------------------------------|
B|---------------------------------------------------------------------------------|
G|---------------------------------------------------------------------------------|
D|--9~~~-----------------------6~~~~--------------------2~~~~~~~~~~~~~-------------| X2
A|--9~~~-----------------------6~~~~--------------------2~~~~~~~~~~~~--------------|
E|--7~~~-----------------------4~~~~--------------------0~~~~~~~~~~~~--------------|

GTR2         X2                        X2                      X2|
e|-{-14-0-12-0-11-0-12-0-}---{-12-0-11-0-9-0-11-0-}---{-9-0-7-0-6-0-7-0-}-|
B|------------------------------------------------------------------------|
G|------------------------------------------------------------------------|
D|------------------------------------------------------------------------|
A|------------------------------------------------------------------------|
E|------------------------------------------------------------------------|


-6-0-7-0-9-0-11-0-12-0-11-0-12-0-13-0-|
--------------------------------------|
--------------------------------------|
--------------------------------------| X2
--------------------------------------|
--------------------------------------|




BREAKDOWNISH PART 0:48
GTR1
e|------------------------------------------------------------------|--------------------------------|
B|------------------------------------------------------------------|--------------------------------|
G|------------------------------------------------------------------|--------------------------------|
D|---6--6-6--6--6-6--4--4-4--4--4-4--2------------------------------|--------------------------------|X2
A|---6--6-6--6--6-6--4--4-4--4--4-4--2---2-2-2-2-2-2-2-2-2-2-2-2-2-2|2-2-2-2-2-2-2-2-2-2-2-2-2-2-2-2-|
E|---4--4-4--4--4-4--2--2-2--2--2-2--0---0-0-0-0-0-0-0-0-0-0-0-0-0-0|0-0-0-0-0-0-0-0-0-0-0-0-0-0-0-0-|
                                         * * * * * * * * * * * * * * * * * * * * * * * * * * * * * *
GTR2
e|------------------------------------------------------------------|--------------------------------|
B|------------------------------------------------------------------|--------------------------------|
G|---11-1111-8--8-8--8--1111-11-1111-4-4-4-4-4-4-4-4/6-6-6-6/8-8-8-8|4-4-4-4-4-4-4-4/8-8-8-8/9-9-9-9-|
D|---X--X-X--X--X-X--X--X-X--X--X-X--X-X-X-X-X-X-X-X/X-X-X-X/X-X-X-X|X-X-X-X-X-X-X-X-X-X-X-X-X-X-X-X-|X2
A|---9--9-9--6--6-6--6--9-9--9--9-9--2-2-2-2-2-2-2-2/4-4-4-4/6-6-6-6|2-2-2-2-2-2-2-2/6-6-6-6/7-7-7-7-|
E|------------------------------------------------------------------|--------------------------------|




''Don't say''.. 1:09 
(He has his own strum pattern here but it'll look stuffed up so i did it with the beat)
GTR1
e|------------------------------------------------------------------|
B|------------------------------------------------------------------|
G|------------------------------------------------------------------|
D|--9-9-9-9-9-9-9---9-9-9-9-9-9-9---6-6-6-6-4-4-4-4-2-2-2-2-2-2-2-2-| X2
A|--9-9-9-9-9-9-9---9-9-9-9-9-9-9---6-6-6-6-4-4-4-4-2-2-2-2-2-2-2-2-|
E|--7-7-7-7-7-7-7---6-6-6-6-6-6-6---4-4-4-4-2-2-2-2-0-0-0-0-0-0-0-0-|
GTR2
e|------------------------------------------------------------------|
B|------------------------------------------------------------------|
G|--11111111111111--11111111111111--8-8-8-8-8-8-8-8-4-4-4-4-4-4-4-4-|
D|--X-X-X-X-X-X-X---X-X-X-X-X-X-X---X-X-X-X-X-X-X-X-X-X-X-X-X-X-X-X-| X2
A|--9-9-9-9-9-9-9---9-9-9-9-9-9-9---6-6-6-6-6-6-6-6-2-2-2-2-2-2-2-2-|
E|------------------------------------------------------------------|





''She's waiting on the inside..'' 1:29
GTR1
e|--------------------------------------------|
B|-----------------Don't play on 3rd time-----|
G|--------------------------\/----------------|
D|--6-6-6-6-4-4-4-4-(2-2-2-2-2-2-2-2)---------| X3
A|--6-6-6-6-4-4-4-4-(2-2-2-2-2-2-2-2)---------|
E|--4-4-4-4-2-2-2-2-(0-0-0-0-0-0-0-0)---------|
GTR2
e|--------------------------------------------|
B|--------------------------------------------|
G|--8-8-8-8-8/9-9-9-(4-4-4-4-4-4-4-4)---------|
D|--X-X-X-X-X/X-X-X-(X-X-X-X-X-X-X-X)---------| X3
A|--6-6-6-6-6/7-7-7-(2-2-2-2-2-2-2-2)---------|
E|--------------------------------------------|




SIMILAR TO BREAKDOWNISH PART 1:41                               PLAY AFTER 2ND TIME THROUGH
GTR1                                                   AND GET THAT 'B' STRING RINGING THE MOST
e|----------------------------------------------------------------------------------|-----
B|----------------------------------------------------------------------------------|-7~~~
G|----------------------------------------------------------------------------------|-8~--
D|--9--9-9--9--9-9--6--6-6--6--6-6--4--4-4--4--4-4--2-------------------------------|-9~-- X2
A|--9--9-9--9--9-9--6--6-6--6--6-6--4--4-4--4--4-4--2--2-2-2-2-2-2-2-2-2-2-2-2-2-2--|-9~--
E|--7--7-7--7--7-7--4--4-4--4--4-4--2--2-2--2--2-2--0--0-0-0-0-0-0-0-0-0-0-0-0-0-0--|-7~--
                                                       * * * * * * * * * * * * * *
GTR2                                                   "            'G' STRING          "      
e|----------------------------------------------------------------------------------|-----
B|----------------------------------------------------------------------------------|-----
G|--11-1111-11-1111-8--8-8--8--8-8--6--6-6--6--6-6--4---4-4----8-8-8-8-/-9-9-9-9----|-11~~
D|--X--X-X--X--X-X--X--X-X--X--X-X--X--X-X--X--X-X--X---X-X----X-X-X-X-/-X-X-X-X----|-X--- X2
A|--9--9-9--9--9-9--6--6-6--6--6-6--4--4-4--4--4-4--2---2-2----6-6-6-6-/-7-7-7-7----|-9~--
E|----------------------------------------------------------------------------------|-----



  2:03 
  "If i had three wishes; i'd waste them all on you. I wish, you away.. from meeee"

   POWERSLIDE JUST BEFORE HE SAYS "FROM"




2:17 OUTRO. (mix of other parts)(I Can still hear octaves so a third guitar comes in)
GTR1
e|------------------------------------------------------------------|
B|------------------------------------------------------------------|
G|------------------------------------------------------------------|
D|--9-9-9-9-9-9-9---9-9-9-9-9-9-9---6-6-6-6-4-4-4-4-2-2-2-2-2-2-2-2-| X2
A|--9-9-9-9-9-9-9---9-9-9-9-9-9-9---6-6-6-6-4-4-4-4-2-2-2-2-2-2-2-2-|
E|--7-7-7-7-7-7-7---6-6-6-6-6-6-6---4-4-4-4-2-2-2-2-0-0-0-0-0-0-0-0-|

GTR2
e|------------------------------------------------------------------|
B|------------------------------------------------------------------|
G|--11111111111111--11111111111111--8-8-8-8-8-8-8-8-4-4-4-4-4-4-4-4-|
D|--X-X-X-X-X-X-X---X-X-X-X-X-X-X---X-X-X-X-X-X-X-X-X-X-X-X-X-X-X-X-| X2
A|--9-9-9-9-9-9-9---9-9-9-9-9-9-9---6-6-6-6-6-6-6-6-2-2-2-2-2-2-2-2-|
E|------------------------------------------------------------------|

GTR3
e|-{-14-0-12-0-11-0-12-0-}---{-12-0-11-0-9-0-11-0-}---{-9-0-7-0-6-0-7-0-}-|
B|------------------------------------------------------------------------|
G|------------------------------------------------------------------------|
D|------------------------------------------------------------------------|
A|------------------------------------------------------------------------|
E|------------------------------------------------------------------------|

-6-0-7-0-9-0-11-0-12-0-11-0-12-0-13-0-|
--------------------------------------|
--------------------------------------|
--------------------------------------| X2
--------------------------------------|
--------------------------------------|

THEN THEY CHANGE TO.....


GTR1
e|--------------------------------------------|
B|-----------------Don't play on 2nd time-----|
G|--------------------------\/----------------|
D|--6-6-6-6-4-4-4-4-2-(2-2-2-2-2-2-2)---------| X2
A|--6-6-6-6-4-4-4-4-2-(2-2-2-2-2-2-2)---------|
E|--4-4-4-4-2-2-2-2-0-(0-0-0-0-0-0-0)---------|

GTR2
e|--------------------------------------------|
B|--------------------------------------------|
G|--8-8-8-8-8/9-9-9-4-(4-4-4-4-4-4-4)---------|
D|--X-X-X-X-X/X-X-X-X-(X-X-X-X-X-X-X)---------| X2
A|--6-6-6-6-6/7-7-7-2-(2-2-2-2-2-2-2)---------|
E|--------------------------------------------|

GTR3
e|-{-14-0-12-0-11-0-12-0-}---{-12-0-11-0-9-0-11-0-}-14~-|
B|------------------------------------------------------|
G|------------------------------------------------------|
D|------------------------------------------------------|
A|------------------------------------------------------|
E|------------------------------------------------------|


SO EVERYONE ENDS ON:
e|-----|----|-14~--|
B|-----|----|------|
G|-----|-4~-|------|
D|--2~-|-X~-|------|
A|--2~-|-2~-|------|
E|--0~-|----|------|

AND THATS IT. SORRY ITS A BIT CONFUSING BUT NO PART REPEATS THE EXACT SAME. PLEASE 
RATE & COMMENT. CHEERS
Tap to rate this tab
 
# A B C D E F G H I J K L M N O P Q R S T U V W X Y Z