Song name
# A B C D E F G H I J K L M N O P Q R S T U V W X Y Z

Hawthorne Heights - Golden Parachutes tab

Half Step Down Tuning

Intro/Verse
eb-----------------------------------------------------|
bb-----------------------------------------------------|
gb-----------------------------------------------------|
db-----4h5p4---4-----4h5p4---4-----4h5p4---4-----------|
ab-2-2---------------------------------------------5-4-|
eb---------------3-3-----------0-0-----------0-0-0-----|

Pre-Chorus
Rhythm
eb------------------------------|
bb------------------------------|
gb------------------------------|
db-55555555-77777777-55555555-7-|
ab-55555555-77777777-55555555-7-|
eb-33333333-55555555-33333333-5-|

Lead
eb-----2-------2---|
bb-3-----3-3-----3-|
gb---2-------2-----|
db-----------------|
ab-----------------|
eb-----------------|

Chorus
eb------------------------------|
bb------------------------------|
gb-777777-----------------------|
db-777777-777777-999999-555-777-|
ab-555555-777777-999999-555-777-|
eb--------555555-777777-333-555-|

Verse
eb-------------------------------------|
bb-------------------------------------|
gb-4-4-4-44----------------------------|
db-4-4-4-44-5-5-5-55-2-2-2-2-2-2-2-----|
ab-2-2-2-22-5-5-5-55-2-2-2-2-2-2-2-5-4-|
eb----------3-3-3-33-0-0-0-0-0-0-0-----|

Chorus

Bridge
Rhythm
eb-------------------------|
bb-------------------------|
gb---------------------9~--|
db-9999-7777-5~--------9~--|
ab-9999-7777-5~--------7~--|
eb-7777-5555-3~------------|

Lead
eb----------------|
bb----------------|
gb----------------|
db-7~---5~---4~---| several times
ab----------------|
eb----------------|

Final Chorus
eb------------------------------------|
bb------------------------------------|
gb-999999-----------------------------|
db-999999-999999-111111111111-777-999-|
ab-777777-999999-111111111111-777-999-|
eb--------777777--9-9-9-9-9-9-555-777-|

Outro
eb--------------------|
bb--------------------|
gb--------------------|
db-11111111-9999-7~---|
ab-11111111-9999-7~---|
eb--9-9-9-9-7777-5~---|

The lead plays some stuff in the chorus' but I'm lazy at the moment.
I'll tab it out if this gets accepted
Tap to rate this tab
# A B C D E F G H I J K L M N O P Q R S T U V W X Y Z