Song name
# A B C D E F G H I J K L M N O P Q R S T U V W X Y Z

Hawthorne Heights - Hollow Hearts Unite tab

-------------------------------------------------------------------------------
                             HOLLOW HEARTS UNITE- Hawthorne Heights
-------------------------------------------------------------------------------

From the album 'Zero'
Tabbed by: antonio.gor
E-mail: antonio.gor@hotmail.com

There where no tabs or chords for this song so I thought I'd tab it out.
Hope you guys like it; feel free to contribute any corrections.

Tuning: Standard


INTRO
e|----------------------------|----------------------------|--------------------|
B|---7-------6------4------2--|---7-------6------4------2--|---4------6------7~-|
G|----------------------------|----------------------------|--------------------|
D|----------------------------|----------------------------|--------------------|
A|-6------4-------2------1----|-6------4-------2------1----|-2------4------6----|
E|-------4-------4------2-----|6------4-------4------2-----|4------4------6-----|

VERSE 1

e|----------------------------|----------------------------|--------------------|
B|---7-------6------4------2--|---7-------6------4------2--|---4------6------7~-|
G|----------------------------|----------------------------|--------------------|
D|----------------------------|--------------------------X2|------------------X2|
A|-6------4-------2------1----|-6------4-------2------1----|-2------4------6----|
E|-------4-------4------2-----|6------4-------4------2-----|4------4------6-----|

INTRO

e|----------------------------|----------------------------|
B|---7-------6------4------2--|---7-------6------4------2--|
G|----------------------------|----------------------------|
D|----------------------------|----------------------------|
A|-6------4-------2------1----|-6------4-------2------1----|
E|-------4-------4------2-----|6------4-------4------2-----|

VERSE 2

e|----------------------------|----------------------------|--------------------|
B|---7-------6------4------2--|---7-------6------4------2--|---4------6------7~-|
G|----------------------------|----------------------------|--------------------|
D|----------------------------|--------------------------X2|------------------X2|
A|-6------4-------2------1----|-6------4-------2------1----|-2------4------6----|
E|-------4-------4------2-----|6------4-------4------2-----|4------4------6-----|

CHORUS
Listen to song for the strumming
e|------------------|-------------------|
B|------------------|----4--------6-----|
G|---------3~--6~---|---4-4------6-6----| X3
D|-4~--6~--3~--6~-X2|--4---4~---6---6~--|
A|-4~--6~--1~--4~---|-2--------4--------|
E|-2~--4~-----------|-------------------|

INTRO

e|----------------------------|----------------------------|
B|---7-------6------4------2--|---7-------6------4------2--|
G|----------------------------|----------------------------|
D|----------------------------|----------------------------|
A|-6------4-------2------1----|-6------4-------2------1----|
E|-------4-------4------2-----|6------4-------4------2-----|

VERSE 3

e|----------------------------|----------------------------|--------------------|
B|---7-------6------4------2--|---7-------6------4------2--|---4------6------7~-|
G|----------------------------|----------------------------|--------------------|
D|----------------------------|--------------------------X2|------------------X2|
A|-6------4-------2------1----|-6------4-------2------1----|-2------4------6----|
E|-------4-------4------2-----|6------4-------4------2-----|4------4------6-----|

CHORUS
Listen to song for the strumming
e|------------------|-------------------|
B|------------------|----4--------6-----|
G|---------3~--6~---|---4-4------6-6----| X3
D|-4~--6~--3~--6~-X2|--4---4~---6---6~--|
A|-4~--6~--1~--4~---|-2--------4--------|
E|-2~--4~-----------|-------------------|

Play intro until song fades out.
Tap to rate this tab
# A B C D E F G H I J K L M N O P Q R S T U V W X Y Z